  0
SECTION
  2
HEADER
  9
$ACADVER
  1
AC1015
  9
$ACADMAINTVER
 70
     6
  9
$DWGCODEPAGE
  3
ANSI_1254
  9
$INSBASE
 10
0.0
 20
0.0
 30
0.0
  9
$EXTMIN
 10
0.0
 20
0.0
 30
0.0
  9
$EXTMAX
 10
279.4
 20
215.9
 30
0.0
  9
$LIMMIN
 10
0.0
 20
0.0
  9
$LIMMAX
 10
279.4
 20
215.9
  9
$ORTHOMODE
 70
     0
  9
$REGENMODE
 70
     1
  9
$FILLMODE
 70
     1
  9
$QTEXTMODE
 70
     0
  9
$MIRRTEXT
 70
     1
  9
$LTSCALE
 40
1.0
  9
$ATTMODE
 70
     1
  9
$TEXTSIZE
 40
3.5
  9
$TRACEWID
 40
1.0
  9
$TEXTSTYLE
  7
Standard
  9
$CLAYER
  8
0
  9
$CELTYPE
  6
ByLayer
  9
$CECOLOR
 62
   256
  9
$CELTSCALE
 40
1.0
  9
$DISPSILH
 70
     0
  9
$DIMSCALE
 40
1.0
  9
$DIMASZ
 40
3.5
  9
$DIMEXO
 40
1.0
  9
$DIMDLI
 40
3.75
  9
$DIMRND
 40
0.0
  9
$DIMDLE
 40
0.0
  9
$DIMEXE
 40
1.0
  9
$DIMTP
 40
0.0
  9
$DIMTM
 40
0.0
  9
$DIMTXT
 40
3.5
  9
$DIMCEN
 40
2.5
  9
$DIMTSZ
 40
0.0
  9
$DIMTOL
 70
     0
  9
$DIMLIM
 70
     0
  9
$DIMTIH
 70
     1
  9
$DIMTOH
 70
     1
  9
$DIMSE1
 70
     0
  9
$DIMSE2
 70
     0
  9
$DIMTAD
 70
     1
  9
$DIMZIN
 70
     0
  9
$DIMBLK
  1

  9
$DIMASO
 70
     1
  9
$DIMSHO
 70
     1
  9
$DIMPOST
  1

  9
$DIMAPOST
  1

  9
$DIMALT
 70
     0
  9
$DIMALTD
 70
     3
  9
$DIMALTF
 40
0.0393700787
  9
$DIMLFAC
 40
1.0
  9
$DIMTOFL
 70
     1
  9
$DIMTVP
 40
0.0
  9
$DIMTIX
 70
     0
  9
$DIMSOXD
 70
     0
  9
$DIMSAH
 70
     0
  9
$DIMBLK1
  1

  9
$DIMBLK2
  1

  9
$DIMSTYLE
  2
ISO-25
  9
$DIMCLRD
 70
     0
  9
$DIMCLRE
 70
     0
  9
$DIMCLRT
 70
     0
  9
$DIMTFAC
 40
1.0
  9
$DIMGAP
 40
1.524
  9
$DIMJUST
 70
     0
  9
$DIMSD1
 70
     0
  9
$DIMSD2
 70
     0
  9
$DIMTOLJ
 70
     0
  9
$DIMTZIN
 70
     0
  9
$DIMALTZ
 70
     0
  9
$DIMALTTZ
 70
     0
  9
$DIMUPT
 70
     0
  9
$DIMDEC
 70
     2
  9
$DIMTDEC
 70
     2
  9
$DIMALTU
 70
     2
  9
$DIMALTTD
 70
     3
  9
$DIMTXSTY
  7
Standard
  9
$DIMAUNIT
 70
     0
  9
$DIMADEC
 70
     2
  9
$DIMALTRND
 40
0.0
  9
$DIMAZIN
 70
     0
  9
$DIMDSEP
 70
    44
  9
$DIMATFIT
 70
     3
  9
$DIMFRAC
 70
     0
  9
$DIMLDRBLK
  1

  9
$DIMLUNIT
 70
     2
  9
$DIMLWD
 70
    -2
  9
$DIMLWE
 70
    -2
  9
$DIMTMOVE
 70
     0
  9
$LUNITS
 70
     2
  9
$LUPREC
 70
     2
  9
$SKETCHINC
 40
1.0
  9
$FILLETRAD
 40
10.0
  9
$AUNITS
 70
     0
  9
$AUPREC
 70
     2
  9
$MENU
  1
.
  9
$ELEVATION
 40
0.0
  9
$PELEVATION
 40
0.0
  9
$THICKNESS
 40
0.0
  9
$LIMCHECK
 70
     0
  9
$CHAMFERA
 40
0.0
  9
$CHAMFERB
 40
0.0
  9
$CHAMFERC
 40
0.0
  9
$CHAMFERD
 40
0.0
  9
$SKPOLY
 70
     0
  9
$TDCREATE
 40
2459741.604526065
  9
$TDUCREATE
 40
2459741.479526065
  9
$TDUPDATE
 40
2459741.60452625
  9
$TDUUPDATE
 40
2459741.47952625
  9
$TDINDWG
 40
0.0000000116
  9
$TDUSRTIMER
 40
0.0000000116
  9
$USRTIMER
 70
     1
  9
$ANGBASE
 50
0.0
  9
$ANGDIR
 70
     0
  9
$PDMODE
 70
     0
  9
$PDSIZE
 40
-1.0
  9
$PLINEWID
 40
0.0
  9
$SPLFRAME
 70
     0
  9
$SPLINETYPE
 70
     6
  9
$SPLINESEGS
 70
     8
  9
$HANDSEED
  5
11F
  9
$SURFTAB1
 70
     6
  9
$SURFTAB2
 70
     6
  9
$SURFTYPE
 70
     6
  9
$SURFU
 70
     6
  9
$SURFV
 70
     6
  9
$UCSBASE
  2

  9
$UCSNAME
  2

  9
$UCSORG
 10
0.0
 20
0.0
 30
0.0
  9
$UCSXDIR
 10
1.0
 20
0.0
 30
0.0
  9
$UCSYDIR
 10
0.0
 20
1.0
 30
0.0
  9
$UCSORTHOREF
  2

  9
$UCSORTHOVIEW
 70
     0
  9
$UCSORGTOP
 10
0.0
 20
0.0
 30
0.0
  9
$UCSORGBOTTOM
 10
0.0
 20
0.0
 30
0.0
  9
$UCSORGLEFT
 10
0.0
 20
0.0
 30
0.0
  9
$UCSORGRIGHT
 10
0.0
 20
0.0
 30
0.0
  9
$UCSORGFRONT
 10
0.0
 20
0.0
 30
0.0
  9
$UCSORGBACK
 10
0.0
 20
0.0
 30
0.0
  9
$PUCSBASE
  2

  9
$PUCSNAME
  2

  9
$PUCSORG
 10
0.0
 20
0.0
 30
0.0
  9
$PUCSXDIR
 10
1.0
 20
0.0
 30
0.0
  9
$PUCSYDIR
 10
0.0
 20
1.0
 30
0.0
  9
$PUCSORTHOREF
  2

  9
$PUCSORTHOVIEW
 70
     0
  9
$PUCSORGTOP
 10
0.0
 20
0.0
 30
0.0
  9
$PUCSORGBOTTOM
 10
0.0
 20
0.0
 30
0.0
  9
$PUCSORGLEFT
 10
0.0
 20
0.0
 30
0.0
  9
$PUCSORGRIGHT
 10
0.0
 20
0.0
 30
0.0
  9
$PUCSORGFRONT
 10
0.0
 20
0.0
 30
0.0
  9
$PUCSORGBACK
 10
0.0
 20
0.0
 30
0.0
  9
$USERI1
 70
     0
  9
$USERI2
 70
     0
  9
$USERI3
 70
     0
  9
$USERI4
 70
     0
  9
$USERI5
 70
     0
  9
$USERR1
 40
0.0
  9
$USERR2
 40
0.0
  9
$USERR3
 40
0.0
  9
$USERR4
 40
0.0
  9
$USERR5
 40
0.0
  9
$WORLDVIEW
 70
     1
  9
$SHADEDGE
 70
     3
  9
$SHADEDIF
 70
    70
  9
$TILEMODE
 70
     1
  9
$MAXACTVP
 70
    64
  9
$PINSBASE
 10
0.0
 20
0.0
 30
0.0
  9
$PLIMCHECK
 70
     0
  9
$PEXTMIN
 10
1.0000000000E+20
 20
1.0000000000E+20
 30
1.0000000000E+20
  9
$PEXTMAX
 10
-1.0000000000E+20
 20
-1.0000000000E+20
 30
-1.0000000000E+20
  9
$PLIMMIN
 10
0.0
 20
0.0
  9
$PLIMMAX
 10
420.0
 20
297.0
  9
$UNITMODE
 70
     0
  9
$VISRETAIN
 70
     1
  9
$PLINEGEN
 70
     0
  9
$PSLTSCALE
 70
     1
  9
$TREEDEPTH
 70
  3020
  9
$CMLSTYLE
  2
Standard
  9
$CMLJUST
 70
     0
  9
$CMLSCALE
 40
20.0
  9
$PROXYGRAPHICS
 70
     1
  9
$MEASUREMENT
 70
     1
  9
$CELWEIGHT
370
    -1
  9
$ENDCAPS
280
     0
  9
$JOINSTYLE
280
     0
  9
$LWDISPLAY
290
     1
  9
$INSUNITS
 70
     4
  9
$HYPERLINKBASE
  1

  9
$STYLESHEET
  1

  9
$XEDIT
290
     1
  9
$CEPSNTYPE
380
     0
  9
$PSTYLEMODE
290
     1
  9
$FINGERPRINTGUID
  2
{4f71d6bc-2c53-44f0-98fc-1f13b2b9726d}
  9
$VERSIONGUID
  2
{FAEB1C32-E019-11D5-929B-00C0DF256EC4}
  9
$EXTNAMES
290
     1
  9
$PSVPSCALE
 40
0.0
  9
$OLESTARTUP
290
     0
  0
ENDSEC
  0
SECTION
  2
CLASSES
  0
CLASS
  1
ACDBDICTIONARYWDFLT
  2
AcDbDictionaryWithDefault
  3
ObjectDBX Classes
 90
        0
280
     0
281
     0
  0
CLASS
  1
VISUALSTYLE
  2
AcDbVisualStyle
  3
ObjectDBX Classes
 90
     4095
280
     0
281
     0
  0
CLASS
  1
MATERIAL
  2
AcDbMaterial
  3
ObjectDBX Classes
 90
     1153
280
     0
281
     0
  0
CLASS
  1
SCALE
  2
AcDbScale
  3
ObjectDBX Classes
 90
     1153
280
     0
281
     0
  0
CLASS
  1
TABLESTYLE
  2
AcDbTableStyle
  3
ObjectDBX Classes
 90
     4095
280
     0
281
     0
  0
CLASS
  1
MLEADERSTYLE
  2
AcDbMLeaderStyle
  3
ACDB_MLEADERSTYLE_CLASS
 90
     4095
280
     0
281
     0
  0
CLASS
  1
SUN
  2
AcDbSun
  3
SCENEOE
 90
     1153
280
     0
281
     0
  0
CLASS
  1
ACDBPLACEHOLDER
  2
AcDbPlaceHolder
  3
ObjectDBX Classes
 90
        0
280
     0
281
     0
  0
CLASS
  1
LAYOUT
  2
AcDbLayout
  3
ObjectDBX Classes
 90
        0
280
     0
281
     0
  0
ENDSEC
  0
SECTION
  2
TABLES
  0
TABLE
  2
VPORT
  5
8
330
0
100
AcDbSymbolTable
 70
     1
  0
VPORT
  5
29
330
8
100
AcDbSymbolTableRecord
100
AcDbViewportTableRecord
  2
*Active
 70
     0
 10
0.0
 20
0.0
 11
1.0
 21
1.0
 12
139.7
 22
107.95
 13
0.0
 23
0.0
 14
10.0
 24
10.0
 15
10.0
 25
10.0
 16
0.0
 26
0.0
 36
1.0
 17
0.0
 27
0.0
 37
0.0
 40
215.9
 41
1.2941176471
 42
50.0
 43
0.0
 44
0.0
 50
0.0
 51
0.0
 71
     0
 72
  2000
 73
     1
 74
     3
 75
     0
 76
     0
 77
     0
 78
     0
281
     0
 65
     1
110
0.0
120
0.0
130
0.0
111
1.0
121
0.0
131
0.0
112
0.0
122
1.0
132
0.0
 79
     0
146
0.0
  0
ENDTAB
  0
TABLE
  2
LTYPE
  5
5
330
0
100
AcDbSymbolTable
 70
     6
  0
LTYPE
  5
14
330
5
100
AcDbSymbolTableRecord
100
AcDbLinetypeTableRecord
  2
ByBlock
 70
     0
  3

 72
    65
 73
     0
 40
0.0
  0
LTYPE
  5
15
330
5
100
AcDbSymbolTableRecord
100
AcDbLinetypeTableRecord
  2
ByLayer
 70
     0
  3

 72
    65
 73
     0
 40
0.0
  0
LTYPE
  5
16
330
5
100
AcDbSymbolTableRecord
100
AcDbLinetypeTableRecord
  2
Continuous
 70
     0
  3
Solid line
 72
    65
 73
     0
 40
0.0
  0
LTYPE
  5
6E
330
5
100
AcDbSymbolTableRecord
100
AcDbLinetypeTableRecord
  2
HIDDEN
 70
     0
  3
Hidden __ __ __ __ __ __ __ __ __ __ __ __ __ __
 72
    65
 73
     2
 40
1.905
 49
1.27
 74
     0
 49
-0.635
 74
     0
  0
LTYPE
  5
6F
330
5
100
AcDbSymbolTableRecord
100
AcDbLinetypeTableRecord
  2
PHANTOM
 70
     0
  3
Phantom ______  __  __  ______  __  __  ______
 72
    65
 73
     6
 40
12.7
 49
6.35
 74
     0
 49
-1.27
 74
     0
 49
1.27
 74
     0
 49
-1.27
 74
     0
 49
1.27
 74
     0
 49
-1.27
 74
     0
  0
LTYPE
  5
70
330
5
100
AcDbSymbolTableRecord
100
AcDbLinetypeTableRecord
  2
CENTER
 70
     0
  3
Center ____ _ ____ _ ____ _ ____ _ ____ _ ____
 72
    65
 73
     4
 40
10.16
 49
6.35
 74
     0
 49
-1.27
 74
     0
 49
1.27
 74
     0
 49
-1.27
 74
     0
  0
LTYPE
  5
71
330
5
100
AcDbSymbolTableRecord
100
AcDbLinetypeTableRecord
  2
CENTERX2
 70
     0
  3
Center (2x) ________  __  ________  __  _____
 72
    65
 73
     4
 40
20.32
 49
12.7
 74
     0
 49
-2.54
 74
     0
 49
2.54
 74
     0
 49
-2.54
 74
     0
  0
LTYPE
  5
72
330
5
100
AcDbSymbolTableRecord
100
AcDbLinetypeTableRecord
  2
DOT2
 70
     0
  3
Dot (.5x) ........................................
 72
    65
 73
     2
 40
0.635
 49
0.0
 74
     0
 49
-0.635
 74
     0
  0
ENDTAB
  0
TABLE
  2
LAYER
  5
2
330
0
100
AcDbSymbolTable
 70
    17
  0
LAYER
  5
10
330
2
100
AcDbSymbolTableRecord
100
AcDbLayerTableRecord
  2
0
 70
     0
 62
     7
  6
Continuous
370
    -3
390
F
  0
LAYER
  5
73
330
2
100
AcDbSymbolTableRecord
100
AcDbLayerTableRecord
  2
FORMAT
 70
     0
 62
     7
  6
Continuous
370
    -3
390
F
  0
LAYER
  5
74
330
2
100
AcDbSymbolTableRecord
100
AcDbLayerTableRecord
  2
YARDIMCI_GEOMETRI
 70
     0
 62
    -6
  6
Continuous
290
     0
370
    -3
390
F
  0
LAYER
  5
75
330
2
100
AcDbSymbolTableRecord
100
AcDbLayerTableRecord
  2
SAYFA_CERCEVESI
 70
     0
 62
     7
  6
Continuous
370
    25
390
F
  0
LAYER
  5
76
330
2
100
AcDbSymbolTableRecord
100
AcDbLayerTableRecord
  2
ANTET
 70
     0
 62
     7
  6
Continuous
370
    -3
390
F
  0
LAYER
  5
77
330
2
100
AcDbSymbolTableRecord
100
AcDbLayerTableRecord
  2
OLCU
 70
     0
 62
   150
  6
Continuous
370
    -3
390
F
  0
LAYER
  5
78
330
2
100
AcDbSymbolTableRecord
100
AcDbLayerTableRecord
  2
METIN
 70
     0
 62
    96
  6
Continuous
370
    -3
390
F
  0
LAYER
  5
79
330
2
100
AcDbSymbolTableRecord
100
AcDbLayerTableRecord
  2
BALON
 70
     0
 62
     5
  6
Continuous
370
    -3
390
F
  0
LAYER
  5
7A
330
2
100
AcDbSymbolTableRecord
100
AcDbLayerTableRecord
  2
VURGU
 70
     0
 62
     7
  6
Continuous
370
    -3
390
F
  0
LAYER
  5
7B
330
2
100
AcDbSymbolTableRecord
100
AcDbLayerTableRecord
  2
SILIK
 70
     0
 62
     7
  6
Continuous
370
    -3
390
F
  0
LAYER
  5
7C
330
2
100
AcDbSymbolTableRecord
100
AcDbLayerTableRecord
  2
MODEL
 70
     0
 62
     7
  6
Continuous
370
    -3
390
F
  0
LAYER
  5
7D
330
2
100
AcDbSymbolTableRecord
100
AcDbLayerTableRecord
  2
DETAYLANDıRMA
 70
     0
 62
   190
  6
Continuous
370
    -3
390
F
  0
LAYER
  5
7E
330
2
100
AcDbSymbolTableRecord
100
AcDbLayerTableRecord
  2
TOLERANS
 70
     0
 62
   230
  6
Continuous
370
    -3
390
F
  0
LAYER
  5
7F
330
2
100
AcDbSymbolTableRecord
100
AcDbLayerTableRecord
  2
MERKEZ_CIZGILERI
 70
     0
 62
    30
  6
Continuous
370
    -3
390
F
  0
LAYER
  5
80
330
2
100
AcDbSymbolTableRecord
100
AcDbLayerTableRecord
  2
KESIT-DETAY_CIZGILERI
 70
     0
 62
     7
  6
Continuous
370
    -3
390
F
  0
LAYER
  5
81
330
2
100
AcDbSymbolTableRecord
100
AcDbLayerTableRecord
  2
\U+041E\U+0421\U+0415\U+0412\U+042B\U+0415
 70
     0
 62
     7
  6
Continuous
370
    -3
390
F
  0
LAYER
  5
82
330
2
100
AcDbSymbolTableRecord
100
AcDbLayerTableRecord
  2
\U+0412\U+041E\U+0414\U+042F\U+041D\U+042B\U+0415_\U+0417\U+041D\U+0410\U+041A\U+0418
 70
     0
 62
    11
  6
Continuous
370
    -3
390
F
  0
ENDTAB
  0
TABLE
  2
STYLE
  5
3
330
0
100
AcDbSymbolTable
 70
     1
  0
STYLE
  5
11
330
3
100
AcDbSymbolTableRecord
100
AcDbTextStyleTableRecord
  2
Standard
 70
     0
 40
0.0
 41
1.0
 50
0.0
 71
     0
 42
3.5
  3
txt
  4

  0
ENDTAB
  0
TABLE
  2
VIEW
  5
6
330
0
100
AcDbSymbolTable
 70
     0
  0
ENDTAB
  0
TABLE
  2
UCS
  5
7
330
0
100
AcDbSymbolTable
 70
     0
  0
ENDTAB
  0
TABLE
  2
APPID
  5
9
330
0
100
AcDbSymbolTable
 70
     1
  0
APPID
  5
12
330
9
100
AcDbSymbolTableRecord
100
AcDbRegAppTableRecord
  2
ACAD
 70
     0
  0
ENDTAB
  0
TABLE
  2
DIMSTYLE
  5
A
330
0
100
AcDbSymbolTable
 70
     1
100
AcDbDimStyleTable
  0
DIMSTYLE
105
27
330
A
100
AcDbSymbolTableRecord
100
AcDbDimStyleTableRecord
  2
ISO-25
 70
     0
 41
2.5
 42
0.625
 43
3.75
 44
1.25
 73
     0
 74
     0
 77
     1
 78
     8
140
2.5
141
2.5
143
0.0393700787
147
0.625
171
     3
172
     1
178
     0
271
     2
272
     2
274
     3
278
    44
283
     0
284
     8
340
11
  0
ENDTAB
  0
TABLE
  2
BLOCK_RECORD
  5
1
330
0
100
AcDbSymbolTable
 70
     5
  0
BLOCK_RECORD
  5
1F
330
1
100
AcDbSymbolTableRecord
100
AcDbBlockTableRecord
  2
*Model_Space
340
22
  0
BLOCK_RECORD
  5
1B
330
1
100
AcDbSymbolTableRecord
100
AcDbBlockTableRecord
  2
*Paper_Space
340
1E
  0
BLOCK_RECORD
  5
23
330
1
100
AcDbSymbolTableRecord
100
AcDbBlockTableRecord
  2
*Paper_Space0
340
26
  0
BLOCK_RECORD
  5
A5
330
1
100
AcDbSymbolTableRecord
100
AcDbBlockTableRecord
  2
SW_CENTERMARKSYMBOL_0
340
0
102
{BLKREFS
331
B0
102
}
  0
BLOCK_RECORD
  5
C1
330
1
100
AcDbSymbolTableRecord
100
AcDbBlockTableRecord
  2
SW_CENTERMARKSYMBOL_1
340
0
102
{BLKREFS
331
CC
102
}
  0
BLOCK_RECORD
  5
DE
330
1
100
AcDbSymbolTableRecord
100
AcDbBlockTableRecord
  2
SW_CENTERMARKSYMBOL_2
340
0
102
{BLKREFS
331
E9
102
}
  0
BLOCK_RECORD
  5
F9
330
1
100
AcDbSymbolTableRecord
100
AcDbBlockTableRecord
  2
SW_CENTERMARKSYMBOL_3
340
0
102
{BLKREFS
331
104
102
}
  0
ENDTAB
  0
ENDSEC
  0
SECTION
  2
BLOCKS
  0
BLOCK
  5
20
330
1F
100
AcDbEntity
  8
0
100
AcDbBlockBegin
  2
*Model_Space
 70
     0
 10
0.0
 20
0.0
 30
0.0
  3
*Model_Space
  1

  0
ENDBLK
  5
21
330
1F
100
AcDbEntity
  8
0
100
AcDbBlockEnd
  0
BLOCK
  5
1C
330
1B
100
AcDbEntity
 67
     1
  8
0
100
AcDbBlockBegin
  2
*Paper_Space
 70
     0
 10
0.0
 20
0.0
 30
0.0
  3
*Paper_Space
  1

  0
ENDBLK
  5
1D
330
1B
100
AcDbEntity
 67
     1
  8
0
100
AcDbBlockEnd
  0
BLOCK
  5
24
330
23
100
AcDbEntity
  8
0
100
AcDbBlockBegin
  2
*Paper_Space0
 70
     0
 10
0.0
 20
0.0
 30
0.0
  3
*Paper_Space0
  1

  0
ENDBLK
  5
25
330
23
100
AcDbEntity
  8
0
100
AcDbBlockEnd
  0
BLOCK
  5
A6
330
A5
100
AcDbEntity
  8
0
100
AcDbBlockBegin
  2
SW_CENTERMARKSYMBOL_0
 70
     0
 10
0.0
 20
0.0
 30
0.0
  3
SW_CENTERMARKSYMBOL_0
  1

  0
LINE
  5
A8
330
A5
100
AcDbEntity
  8
FORMAT
 62
     0
100
AcDbLine
 10
0.0
 20
0.0
 30
0.0
 11
0.0
 21
2.5
 31
0.0
  0
LINE
  5
A9
330
A5
100
AcDbEntity
  8
FORMAT
 62
     0
100
AcDbLine
 10
0.0
 20
0.0
 30
0.0
 11
-2.5
 21
0.0
 31
0.0
  0
LINE
  5
AA
330
A5
100
AcDbEntity
  8
FORMAT
 62
     0
100
AcDbLine
 10
0.0
 20
0.0
 30
0.0
 11
0.0
 21
-2.5
 31
0.0
  0
LINE
  5
AB
330
A5
100
AcDbEntity
  8
FORMAT
 62
     0
100
AcDbLine
 10
0.0
 20
0.0
 30
0.0
 11
2.5
 21
0.0
 31
0.0
  0
LINE
  5
AC
330
A5
100
AcDbEntity
  8
FORMAT
 62
     0
100
AcDbLine
 10
0.0
 20
5.0
 30
0.0
 11
0.0
 21
24.5
 31
0.0
  0
LINE
  5
AD
330
A5
100
AcDbEntity
  8
FORMAT
 62
     0
100
AcDbLine
 10
-5.0
 20
0.0
 30
0.0
 11
-24.5
 21
0.0
 31
0.0
  0
LINE
  5
AE
330
A5
100
AcDbEntity
  8
FORMAT
 62
     0
100
AcDbLine
 10
0.0
 20
-5.0
 30
0.0
 11
0.0
 21
-24.5
 31
0.0
  0
LINE
  5
AF
330
A5
100
AcDbEntity
  8
FORMAT
 62
     0
100
AcDbLine
 10
5.0
 20
0.0
 30
0.0
 11
24.5
 21
0.0
 31
0.0
  0
ENDBLK
  5
A7
330
A5
100
AcDbEntity
  8
0
100
AcDbBlockEnd
  0
BLOCK
  5
C2
330
C1
100
AcDbEntity
  8
0
100
AcDbBlockBegin
  2
SW_CENTERMARKSYMBOL_1
 70
     0
 10
0.0
 20
0.0
 30
0.0
  3
SW_CENTERMARKSYMBOL_1
  1

  0
LINE
  5
C4
330
C1
100
AcDbEntity
  8
FORMAT
 62
     0
100
AcDbLine
 10
0.0
 20
0.0
 30
0.0
 11
0.0
 21
2.5
 31
0.0
  0
LINE
  5
C5
330
C1
100
AcDbEntity
  8
FORMAT
 62
     0
100
AcDbLine
 10
0.0
 20
0.0
 30
0.0
 11
-2.5
 21
0.0
 31
0.0
  0
LINE
  5
C6
330
C1
100
AcDbEntity
  8
FORMAT
 62
     0
100
AcDbLine
 10
0.0
 20
0.0
 30
0.0
 11
0.0
 21
-2.5
 31
0.0
  0
LINE
  5
C7
330
C1
100
AcDbEntity
  8
FORMAT
 62
     0
100
AcDbLine
 10
0.0
 20
0.0
 30
0.0
 11
2.5
 21
0.0
 31
0.0
  0
LINE
  5
C8
330
C1
100
AcDbEntity
  8
FORMAT
 62
     0
100
AcDbLine
 10
0.0
 20
5.0
 30
0.0
 11
0.0
 21
24.5
 31
0.0
  0
LINE
  5
C9
330
C1
100
AcDbEntity
  8
FORMAT
 62
     0
100
AcDbLine
 10
-5.0
 20
0.0
 30
0.0
 11
-24.5
 21
0.0
 31
0.0
  0
LINE
  5
CA
330
C1
100
AcDbEntity
  8
FORMAT
 62
     0
100
AcDbLine
 10
0.0
 20
-5.0
 30
0.0
 11
0.0
 21
-24.5
 31
0.0
  0
LINE
  5
CB
330
C1
100
AcDbEntity
  8
FORMAT
 62
     0
100
AcDbLine
 10
5.0
 20
0.0
 30
0.0
 11
24.5
 21
0.0
 31
0.0
  0
ENDBLK
  5
C3
330
C1
100
AcDbEntity
  8
0
100
AcDbBlockEnd
  0
BLOCK
  5
DF
330
DE
100
AcDbEntity
  8
0
100
AcDbBlockBegin
  2
SW_CENTERMARKSYMBOL_2
 70
     0
 10
0.0
 20
0.0
 30
0.0
  3
SW_CENTERMARKSYMBOL_2
  1

  0
LINE
  5
E1
330
DE
100
AcDbEntity
  8
FORMAT
 62
     0
100
AcDbLine
 10
0.0
 20
0.0
 30
0.0
 11
0.0
 21
2.5
 31
0.0
  0
LINE
  5
E2
330
DE
100
AcDbEntity
  8
FORMAT
 62
     0
100
AcDbLine
 10
0.0
 20
0.0
 30
0.0
 11
-2.5
 21
0.0
 31
0.0
  0
LINE
  5
E3
330
DE
100
AcDbEntity
  8
FORMAT
 62
     0
100
AcDbLine
 10
0.0
 20
0.0
 30
0.0
 11
0.0
 21
-2.5
 31
0.0
  0
LINE
  5
E4
330
DE
100
AcDbEntity
  8
FORMAT
 62
     0
100
AcDbLine
 10
0.0
 20
0.0
 30
0.0
 11
2.5
 21
0.0
 31
0.0
  0
LINE
  5
E5
330
DE
100
AcDbEntity
  8
FORMAT
 62
     0
100
AcDbLine
 10
0.0
 20
5.0
 30
0.0
 11
0.0
 21
24.5
 31
0.0
  0
LINE
  5
E6
330
DE
100
AcDbEntity
  8
FORMAT
 62
     0
100
AcDbLine
 10
-5.0
 20
0.0
 30
0.0
 11
-24.5
 21
0.0
 31
0.0
  0
LINE
  5
E7
330
DE
100
AcDbEntity
  8
FORMAT
 62
     0
100
AcDbLine
 10
0.0
 20
-5.0
 30
0.0
 11
0.0
 21
-24.5
 31
0.0
  0
LINE
  5
E8
330
DE
100
AcDbEntity
  8
FORMAT
 62
     0
100
AcDbLine
 10
5.0
 20
0.0
 30
0.0
 11
24.5
 21
0.0
 31
0.0
  0
ENDBLK
  5
E0
330
DE
100
AcDbEntity
  8
0
100
AcDbBlockEnd
  0
BLOCK
  5
FA
330
F9
100
AcDbEntity
  8
0
100
AcDbBlockBegin
  2
SW_CENTERMARKSYMBOL_3
 70
     0
 10
0.0
 20
0.0
 30
0.0
  3
SW_CENTERMARKSYMBOL_3
  1

  0
LINE
  5
FC
330
F9
100
AcDbEntity
  8
FORMAT
 62
     0
100
AcDbLine
 10
0.0
 20
0.0
 30
0.0
 11
0.0
 21
2.5
 31
0.0
  0
LINE
  5
FD
330
F9
100
AcDbEntity
  8
FORMAT
 62
     0
100
AcDbLine
 10
0.0
 20
0.0
 30
0.0
 11
-2.5
 21
0.0
 31
0.0
  0
LINE
  5
FE
330
F9
100
AcDbEntity
  8
FORMAT
 62
     0
100
AcDbLine
 10
0.0
 20
0.0
 30
0.0
 11
0.0
 21
-2.5
 31
0.0
  0
LINE
  5
FF
330
F9
100
AcDbEntity
  8
FORMAT
 62
     0
100
AcDbLine
 10
0.0
 20
0.0
 30
0.0
 11
2.5
 21
0.0
 31
0.0
  0
LINE
  5
100
330
F9
100
AcDbEntity
  8
FORMAT
 62
     0
100
AcDbLine
 10
0.0
 20
5.0
 30
0.0
 11
0.0
 21
24.5
 31
0.0
  0
LINE
  5
101
330
F9
100
AcDbEntity
  8
FORMAT
 62
     0
100
AcDbLine
 10
-5.0
 20
0.0
 30
0.0
 11
-24.5
 21
0.0
 31
0.0
  0
LINE
  5
102
330
F9
100
AcDbEntity
  8
FORMAT
 62
     0
100
AcDbLine
 10
0.0
 20
-5.0
 30
0.0
 11
0.0
 21
-24.5
 31
0.0
  0
LINE
  5
103
330
F9
100
AcDbEntity
  8
FORMAT
 62
     0
100
AcDbLine
 10
5.0
 20
0.0
 30
0.0
 11
24.5
 21
0.0
 31
0.0
  0
ENDBLK
  5
FB
330
F9
100
AcDbEntity
  8
0
100
AcDbBlockEnd
  0
ENDSEC
  0
SECTION
  2
ENTITIES
  0
LINE
  5
83
330
1F
100
AcDbEntity
  8
0
  6
Continuous
 62
     7
370
    25
100
AcDbLine
 10
95.3381372123
 20
110.9058431394
 30
0.0
 11
95.3381372123
 21
78.9058431394
 31
0.0
  0
LINE
  5
84
330
1F
100
AcDbEntity
  8
0
  6
Continuous
 62
     7
370
    25
100
AcDbLine
 10
139.3381372123
 20
78.9058431394
 30
0.0
 11
139.3381372123
 21
110.9058431394
 31
0.0
  0
ARC
  5
85
330
1F
100
AcDbEntity
  8
0
  6
Continuous
 62
     7
370
    25
100
AcDbCircle
 10
147.3381372123
 20
110.9058431394
 30
0.0
 40
8.000000000000014
100
AcDbArc
 50
90.0
 51
180.0
  0
ARC
  5
86
330
1F
100
AcDbEntity
  8
0
  6
Continuous
 62
     7
370
    25
100
AcDbCircle
 10
147.3381372123
 20
110.9058431394
 30
0.0
 40
52.00000000000003
100
AcDbArc
 50
90.0
 51
180.0
  0
LINE
  5
87
330
1F
100
AcDbEntity
  8
0
  6
Continuous
 62
     7
370
    25
100
AcDbLine
 10
179.3381372123
 20
162.9058431394
 30
0.0
 11
147.3381372123
 21
162.9058431394
 31
0.0
  0
LINE
  5
88
330
1F
100
AcDbEntity
  8
0
  6
Continuous
 62
     7
370
    25
100
AcDbLine
 10
147.3381372123
 20
118.9058431394
 30
0.0
 11
179.3381372123
 21
118.9058431394
 31
0.0
  0
CIRCLE
  5
89
330
1F
100
AcDbEntity
  8
0
  6
Continuous
 62
     7
370
    25
100
AcDbCircle
 10
117.3381372123
 20
88.9058431394
 30
0.0
 40
5.000000000000014
  0
CIRCLE
  5
8A
330
1F
100
AcDbEntity
  8
0
  6
Continuous
 62
     7
370
    25
100
AcDbCircle
 10
117.3381372123
 20
88.9058431394
 30
0.0
 40
7.000000000000014
  0
CIRCLE
  5
8B
330
1F
100
AcDbEntity
  8
0
  6
Continuous
 62
     7
370
    25
100
AcDbCircle
 10
169.3381372123
 20
140.9058431394
 30
0.0
 40
7.000000000000028
  0
CIRCLE
  5
8C
330
1F
100
AcDbEntity
  8
0
  6
Continuous
 62
     7
370
    25
100
AcDbCircle
 10
169.3381372123
 20
140.9058431394
 30
0.0
 40
5.0
  0
LINE
  5
8D
330
1F
100
AcDbEntity
  8
0
  6
Continuous
 62
     7
370
    25
100
AcDbLine
 10
117.3381372123
 20
78.9058431394
 30
0.0
 11
139.3381372123
 21
78.9058431394
 31
0.0
  0
LINE
  5
8E
330
1F
100
AcDbEntity
  8
0
  6
Continuous
 62
     7
370
    25
100
AcDbLine
 10
95.3381372123
 20
78.9058431394
 30
0.0
 11
117.3381372123
 21
78.9058431394
 31
0.0
  0
LINE
  5
8F
330
1F
100
AcDbEntity
  8
0
  6
Continuous
 62
     7
370
    25
100
AcDbLine
 10
179.3381372123
 20
140.9058431394
 30
0.0
 11
179.3381372123
 21
118.9058431394
 31
0.0
  0
LINE
  5
90
330
1F
100
AcDbEntity
  8
0
  6
Continuous
 62
     7
370
    25
100
AcDbLine
 10
179.3381372123
 20
162.9058431394
 30
0.0
 11
179.3381372123
 21
140.9058431394
 31
0.0
  0
LINE
  5
91
330
1F
100
AcDbEntity
  8
0
  6
Continuous
 62
     1
370
    25
100
AcDbLine
 10
117.3381372123
 20
110.9058431394
 30
0.0
 11
139.3381372123
 21
110.9058431394
 31
0.0
  0
LINE
  5
92
330
1F
100
AcDbEntity
  8
0
  6
Continuous
 62
     1
370
    25
100
AcDbLine
 10
95.3381372123
 20
110.9058431394
 30
0.0
 11
117.3381372123
 21
110.9058431394
 31
0.0
  0
LINE
  5
93
330
1F
100
AcDbEntity
  8
0
  6
Continuous
 62
     1
370
    25
100
AcDbLine
 10
147.3381372123
 20
140.9058431394
 30
0.0
 11
147.3381372123
 21
118.9058431394
 31
0.0
  0
LINE
  5
94
330
1F
100
AcDbEntity
  8
0
  6
Continuous
 62
     1
370
    25
100
AcDbLine
 10
147.3381372123
 20
162.9058431394
 30
0.0
 11
147.3381372123
 21
140.9058431394
 31
0.0
  0
LINE
  5
95
330
1F
100
AcDbEntity
  8
0
  6
Continuous
 62
     7
370
    25
100
AcDbLine
 10
-13.7174936078
 20
147.9058431394
 30
0.0
 11
-29.8531154445
 21
147.9058431394
 31
0.0
  0
LINE
  5
96
330
1F
100
AcDbEntity
  8
0
  6
Continuous
 62
     7
370
    25
100
AcDbLine
 10
-29.8531154445
 20
133.9058431394
 30
0.0
 11
-13.7181763918
 21
133.9058431394
 31
0.0
  0
LINE
  5
97
330
1F
100
AcDbEntity
  8
0
  6
Continuous
 62
     7
370
    25
100
AcDbLine
 10
-14.8531154445
 20
133.9058431394
 30
0.0
 11
-14.8531154445
 21
110.9058431394
 31
0.0
  0
LINE
  5
98
330
1F
100
AcDbEntity
  8
0
  6
Continuous
 62
     7
370
    25
100
AcDbLine
 10
29.1468845555
 20
110.9058431394
 30
0.0
 11
29.1468845555
 21
140.9058431394
 31
0.0
  0
LINE
  5
99
330
1F
100
AcDbEntity
  8
0
  6
Continuous
 62
     7
370
    25
100
AcDbLine
 10
-14.8531154445
 20
81.9058431394
 30
0.0
 11
-14.8531154445
 21
78.9058431394
 31
0.0
  0
LINE
  5
9A
330
1F
100
AcDbEntity
  8
0
  6
Continuous
 62
     7
370
    25
100
AcDbLine
 10
-14.8531154445
 20
110.9058431394
 30
0.0
 11
-14.8531154445
 21
95.9013794531
 31
0.0
  0
LINE
  5
9B
330
1F
100
AcDbEntity
  8
0
  6
Continuous
 62
     7
370
    25
100
AcDbLine
 10
29.1468845555
 20
78.9058431394
 30
0.0
 11
29.1468845555
 21
110.9058431394
 31
0.0
  0
LINE
  5
9C
330
1F
100
AcDbEntity
  8
0
  6
Continuous
 62
     7
370
    25
100
AcDbLine
 10
-14.8517091982
 20
95.9058431394
 30
0.0
 11
-29.8531154445
 21
95.9058431394
 31
0.0
  0
LINE
  5
9D
330
1F
100
AcDbEntity
  8
0
  6
Continuous
 62
     7
370
    25
100
AcDbLine
 10
-29.8531154445
 20
81.9058431394
 30
0.0
 11
-14.8531154445
 21
81.9058431394
 31
0.0
  0
CIRCLE
  5
9E
330
1F
100
AcDbEntity
  8
0
  6
Continuous
 62
     7
370
    25
100
AcDbCircle
 10
7.1468845555
 20
140.9058431394
 30
0.0
 40
22.00000000000001
  0
CIRCLE
  5
9F
330
1F
100
AcDbEntity
  8
0
  6
Continuous
 62
     7
370
    25
100
AcDbCircle
 10
7.1468845555
 20
140.9058431394
 30
0.0
 40
16.0
  0
LINE
  5
A0
330
1F
100
AcDbEntity
  8
0
  6
Continuous
 62
     7
370
    25
100
AcDbLine
 10
-29.8531154445
 20
147.9058431394
 30
0.0
 11
-29.8531154445
 21
133.9058431394
 31
0.0
  0
SPLINE
  5
A1
330
1F
100
AcDbEntity
  8
0
  6
Continuous
 62
     7
370
    25
100
AcDbSpline
210
0.0
220
0.0
230
1.0
 70
     8
 71
     3
 72
    26
 73
    22
 74
     0
 42
0.00000001
 43
0.00000001
 40
0.0
 40
0.0
 40
0.0
 40
0.0
 40
0.0511331702582498
 40
0.1037933502116477
 40
0.1549148013619601
 40
0.2074417768953696
 40
0.2600413000836446
 40
0.3140886931757439
 40
0.3679559167468829
 40
0.4234801630950379
 40
0.4756383272155074
 40
0.5294418203860614
 40
0.5795304303166973
 40
0.6310342995611115
 40
0.6819291980775352
 40
0.7341721164585351
 40
0.7874318086195213
 40
0.8422062946748855
 40
0.8958262704989434
 40
0.9511281357176481
 40
1.0
 40
1.0
 40
1.0
 40
1.0
 10
-14.85311544447158
 20
81.90584313938342
 30
0.0
 10
-14.8474514189149
 20
81.9235419014652
 30
0.0
 10
-14.8359542208096
 20
81.95946797062514
 30
0.0
 10
-14.74580333639713
 20
82.24767022138738
 30
0.0
 10
-14.61117341926118
 20
82.70113330249542
 30
0.0
 10
-14.44128030554675
 20
83.32008306101818
 30
0.0
 10
-14.25108457696578
 20
84.09944222804893
 30
0.0
 10
-14.06138889321106
 20
85.01936247353729
 30
0.0
 10
-13.89216806606156
 20
86.07034089578598
 30
0.0
 10
-13.76899371379347
 20
87.1971116603543
 30
0.0
 10
-13.70545942787092
 20
88.37623251731523
 30
0.0
 10
-13.70862182060798
 20
89.53265898570298
 30
0.0
 10
-13.77435369624095
 20
90.66418972050178
 30
0.0
 10
-13.89121946693894
 20
91.72571342596672
 30
0.0
 10
-14.04951297363404
 20
92.72413839795928
 30
0.0
 10
-14.23292484214802
 20
93.63114245342312
 30
0.0
 10
-14.42521420558527
 20
94.43063448868706
 30
0.0
 10
-14.6032790520923
 20
95.08372192068374
 30
0.0
 10
-14.74570242510714
 20
95.56402024525474
 30
0.0
 10
-14.83724865917534
 20
95.8562373535329
 30
0.0
 10
-14.84708691157683
 20
95.8869642810651
 30
0.0
 10
-14.85170241049815
 20
95.90137945309897
 30
0.0
  0
LINE
  5
A2
330
1F
100
AcDbEntity
  8
0
  6
Continuous
 62
     7
370
    25
100
AcDbLine
 10
-14.8531154445
 20
78.9058431394
 30
0.0
 11
29.1468845555
 21
78.9058431394
 31
0.0
  0
LINE
  5
A3
330
1F
100
AcDbEntity
  8
0
  6
Continuous
 62
     7
370
    25
100
AcDbLine
 10
-29.8531154445
 20
95.9058431394
 30
0.0
 11
-29.8531154445
 21
81.9058431394
 31
0.0
  0
LINE
  5
A4
330
1F
100
AcDbEntity
  8
0
  6
Continuous
 62
     1
370
    25
100
AcDbLine
 10
-14.8531154445
 20
110.9058431394
 30
0.0
 11
29.1468845555
 21
110.9058431394
 31
0.0
  0
INSERT
  5
B0
330
1F
100
AcDbEntity
  8
FORMAT
 62
     7
100
AcDbBlockReference
  2
SW_CENTERMARKSYMBOL_0
 10
7.1468845555
 20
140.9058431394
 30
0.0
  0
LINE
  5
B1
330
1F
100
AcDbEntity
  8
0
  6
Continuous
 62
     7
370
    25
100
AcDbLine
 10
124.3381372123
 20
232.8489044168
 30
0.0
 11
124.3381372123
 21
248.9838434694
 31
0.0
  0
LINE
  5
B2
330
1F
100
AcDbEntity
  8
0
  6
Continuous
 62
     7
370
    25
100
AcDbLine
 10
110.3381372123
 20
248.9838434694
 30
0.0
 11
110.3381372123
 21
232.8482216328
 31
0.0
  0
LINE
  5
B3
330
1F
100
AcDbEntity
  8
0
  6
Continuous
 62
     7
370
    25
100
AcDbLine
 10
147.3381372123
 20
233.9838434694
 30
0.0
 11
124.3381372123
 21
233.9838434694
 31
0.0
  0
LINE
  5
B4
330
1F
100
AcDbEntity
  8
0
  6
Continuous
 62
     7
370
    25
100
AcDbLine
 10
117.3381372123
 20
189.9838434694
 30
0.0
 11
147.3381372123
 21
189.9838434694
 31
0.0
  0
LINE
  5
B5
330
1F
100
AcDbEntity
  8
0
  6
Continuous
 62
     7
370
    25
100
AcDbLine
 10
162.3381372123
 20
233.9838434694
 30
0.0
 11
147.3381372123
 21
233.9838434694
 31
0.0
  0
LINE
  5
B6
330
1F
100
AcDbEntity
  8
0
  6
Continuous
 62
     7
370
    25
100
AcDbLine
 10
179.3381372123
 20
233.9838434694
 30
0.0
 11
176.333673526
 21
233.9838434694
 31
0.0
  0
LINE
  5
B7
330
1F
100
AcDbEntity
  8
0
  6
Continuous
 62
     7
370
    25
100
AcDbLine
 10
147.3381372123
 20
189.9838434694
 30
0.0
 11
179.3381372123
 21
189.9838434694
 31
0.0
  0
LINE
  5
B8
330
1F
100
AcDbEntity
  8
0
  6
Continuous
 62
     7
370
    25
100
AcDbLine
 10
176.3381372123
 20
233.9824372231
 30
0.0
 11
176.3381372123
 21
248.9838434694
 31
0.0
  0
LINE
  5
B9
330
1F
100
AcDbEntity
  8
0
  6
Continuous
 62
     7
370
    25
100
AcDbLine
 10
162.3381372123
 20
248.9838434694
 30
0.0
 11
162.3381372123
 21
233.9838434694
 31
0.0
  0
CIRCLE
  5
BA
330
1F
100
AcDbEntity
  8
0
  6
Continuous
 62
     7
370
    25
100
AcDbCircle
 10
117.3381372123
 20
211.9838434694
 30
0.0
 40
15.99999999999997
  0
CIRCLE
  5
BB
330
1F
100
AcDbEntity
  8
0
  6
Continuous
 62
     7
370
    25
100
AcDbCircle
 10
117.3381372123
 20
211.9838434694
 30
0.0
 40
21.99999999999997
  0
LINE
  5
BC
330
1F
100
AcDbEntity
  8
0
  6
Continuous
 62
     7
370
    25
100
AcDbLine
 10
124.3381372123
 20
248.9838434694
 30
0.0
 11
110.3381372123
 21
248.9838434694
 31
0.0
  0
SPLINE
  5
BD
330
1F
100
AcDbEntity
  8
0
  6
Continuous
 62
     7
370
    25
100
AcDbSpline
210
0.0
220
0.0
230
1.0
 70
     8
 71
     3
 72
    26
 73
    22
 74
     0
 42
0.00000001
 43
0.00000001
 40
0.0
 40
0.0
 40
0.0
 40
0.0
 40
0.0511331702582497
 40
0.1037933502116476
 40
0.1549148013619595
 40
0.2074417768953692
 40
0.2600413000836442
 40
0.3140886931757439
 40
0.3679559167468827
 40
0.4234801630950374
 40
0.475638327215507
 40
0.529441820386061
 40
0.5795304303166967
 40
0.6310342995611109
 40
0.6819291980775347
 40
0.734172116458535
 40
0.7874318086195214
 40
0.8422062946748855
 40
0.8958262704989431
 40
0.9511281357176478
 40
1.0
 40
1.0
 40
1.0
 40
1.0
 10
162.3381372123319
 20
233.9838434694499
 30
0.0
 10
162.3558359744137
 20
233.9781794438933
 30
0.0
 10
162.3917620435736
 20
233.966682245788
 30
0.0
 10
162.6799642943358
 20
233.8765313613755
 30
0.0
 10
163.1334273754439
 20
233.7419014442396
 30
0.0
 10
163.7523771339666
 20
233.5720083305251
 30
0.0
 10
164.5317363009974
 20
233.3818126019441
 30
0.0
 10
165.4516565464857
 20
233.1921169181894
 30
0.0
 10
166.5026349687344
 20
233.0228960910399
 30
0.0
 10
167.6294057333027
 20
232.8997217387719
 30
0.0
 10
168.8085265902637
 20
232.8361874528493
 30
0.0
 10
169.9649530586514
 20
232.8393498455863
 30
0.0
 10
171.0964837934503
 20
232.9050817212193
 30
0.0
 10
172.1580074989152
 20
233.0219474919173
 30
0.0
 10
173.1564324709078
 20
233.1802409986124
 30
0.0
 10
174.0634365263716
 20
233.3636528671264
 30
0.0
 10
174.8629285616356
 20
233.5559422305636
 30
0.0
 10
175.5160159936323
 20
233.7340070770707
 30
0.0
 10
175.9963143182032
 20
233.8764304500855
 30
0.0
 10
176.2885314264814
 20
233.9679766841537
 30
0.0
 10
176.3192583540136
 20
233.9778149365552
 30
0.0
 10
176.3336735260475
 20
233.9824304354765
 30
0.0
  0
LINE
  5
BE
330
1F
100
AcDbEntity
  8
0
  6
Continuous
 62
     7
370
    25
100
AcDbLine
 10
179.3381372123
 20
233.9838434694
 30
0.0
 11
179.3381372123
 21
189.9838434694
 31
0.0
  0
LINE
  5
BF
330
1F
100
AcDbEntity
  8
0
  6
Continuous
 62
     7
370
    25
100
AcDbLine
 10
176.3381372123
 20
248.9838434694
 30
0.0
 11
162.3381372123
 21
248.9838434694
 31
0.0
  0
LINE
  5
C0
330
1F
100
AcDbEntity
  8
0
  6
Continuous
 62
     1
370
    25
100
AcDbLine
 10
147.3381372123
 20
233.9838434694
 30
0.0
 11
147.3381372123
 21
189.9838434694
 31
0.0
  0
INSERT
  5
CC
330
1F
100
AcDbEntity
  8
FORMAT
 62
     7
100
AcDbBlockReference
  2
SW_CENTERMARKSYMBOL_1
 10
117.3381372123
 20
211.9838434694
 30
0.0
  0
LINE
  5
CD
330
1F
100
AcDbEntity
  8
0
  6
Continuous
 62
     7
370
    25
100
AcDbLine
 10
225.8719942794
 20
110.9058431394
 30
0.0
 11
225.8719942794
 21
78.9058431394
 31
0.0
  0
LINE
  5
CE
330
1F
100
AcDbEntity
  8
0
  6
Continuous
 62
     7
370
    25
100
AcDbLine
 10
269.8719942794
 20
95.9013794531
 30
0.0
 11
269.8719942794
 21
110.9058431394
 31
0.0
  0
LINE
  5
CF
330
1F
100
AcDbEntity
  8
0
  6
Continuous
 62
     7
370
    25
100
AcDbLine
 10
269.8719942794
 20
78.9058431394
 30
0.0
 11
269.8719942794
 21
81.9058431394
 31
0.0
  0
LINE
  5
D0
330
1F
100
AcDbEntity
  8
0
  6
Continuous
 62
     7
370
    25
100
AcDbLine
 10
269.8719942794
 20
110.9058431394
 30
0.0
 11
269.8719942794
 21
140.9058431394
 31
0.0
  0
LINE
  5
D1
330
1F
100
AcDbEntity
  8
0
  6
Continuous
 62
     7
370
    25
100
AcDbLine
 10
225.8719942794
 20
140.9058431394
 30
0.0
 11
225.8719942794
 21
110.9058431394
 31
0.0
  0
LINE
  5
D2
330
1F
100
AcDbEntity
  8
0
  6
Continuous
 62
     7
370
    25
100
AcDbLine
 10
269.8719942794
 20
81.9058431394
 30
0.0
 11
284.8719942794
 21
81.9058431394
 31
0.0
  0
LINE
  5
D3
330
1F
100
AcDbEntity
  8
0
  6
Continuous
 62
     7
370
    25
100
AcDbLine
 10
284.8719942794
 20
95.9058431394
 30
0.0
 11
269.8705880331
 21
95.9058431394
 31
0.0
  0
LINE
  5
D4
330
1F
100
AcDbEntity
  8
0
  6
Continuous
 62
     7
370
    25
100
AcDbLine
 10
269.8719942794
 20
133.9058431394
 30
0.0
 11
284.8719942794
 21
133.9058431394
 31
0.0
  0
LINE
  5
D5
330
1F
100
AcDbEntity
  8
0
  6
Continuous
 62
     7
370
    25
100
AcDbLine
 10
284.8719942794
 20
147.9058431394
 30
0.0
 11
268.7363724428
 21
147.9058431394
 31
0.0
  0
LINE
  5
D6
330
1F
100
AcDbEntity
  8
0
  6
Continuous
 62
     7
370
    25
100
AcDbLine
 10
225.8719942794
 20
78.9058431394
 30
0.0
 11
269.8719942794
 21
78.9058431394
 31
0.0
  0
SPLINE
  5
D7
330
1F
100
AcDbEntity
  8
0
  6
Continuous
 62
     7
370
    25
100
AcDbSpline
210
0.0
220
0.0
230
1.0
 70
     8
 71
     3
 72
    27
 73
    23
 74
     0
 42
0.00000001
 43
0.00000001
 40
0.0
 40
0.0
 40
0.0
 40
0.0
 40
0.0026160515322904
 40
0.0556780802630195
 40
0.1059001752218227
 40
0.1575133375507136
 40
0.209020980203298
 40
0.2619079544976685
 40
0.315482217454964
 40
0.3706154887078376
 40
0.4239207236443983
 40
0.4789230844907425
 40
0.5297639097279423
 40
0.5821307240020341
 40
0.6322524185796012
 40
0.6837215977501592
 40
0.735872947412622
 40
0.7894372308498397
 40
0.8432928032808177
 40
0.8987738759031306
 40
0.9486847287901329
 40
1.0
 40
1.0
 40
1.0
 40
1.0
 10
269.8705812454147
 20
95.90137945309898
 30
0.0
 10
269.8710485398891
 20
95.90285570923857
 30
0.0
 10
269.8809940852774
 20
95.93427523856134
 30
0.0
 10
269.8443113874826
 20
95.81918276954976
 30
0.0
 10
269.7594443708772
 20
95.54649559439096
 30
0.0
 10
269.6232193543385
 20
95.08689345319196
 30
0.0
 10
269.4532738508071
 20
94.46480924266359
 30
0.0
 10
269.2640643464712
 20
93.6861634579607
 30
0.0
 10
269.0735908256539
 20
92.7565510661231
 30
0.0
 10
268.9069913786059
 20
91.71053424142703
 30
0.0
 10
268.7840901635672
 20
90.56918315802747
 30
0.0
 10
268.723581314507
 20
89.40497692897361
 30
0.0
 10
268.7290617618858
 20
88.23353031531839
 30
0.0
 10
268.7956719500324
 20
87.11734998577792
 30
0.0
 10
268.9153298412157
 20
86.04838449681765
 30
0.0
 10
269.0736845799816
 20
85.05822902553459
 30
0.0
 10
269.25847455915
 20
84.15060002630668
 30
0.0
 10
269.4497499681718
 20
83.35944653709029
 30
0.0
 10
269.628279613846
 20
82.7063701435958
 30
0.0
 10
269.7654308506192
 20
82.24532265703212
 30
0.0
 10
269.8550800415721
 20
81.95868244885301
 30
0.0
 10
269.8663042914403
 20
81.92361840288171
 30
0.0
 10
269.871994279388
 20
81.90584313938342
 30
0.0
  0
ARC
  5
D8
330
1F
100
AcDbEntity
  8
0
  6
Continuous
 62
     7
370
    25
100
AcDbCircle
 10
247.8719942794
 20
140.9058431394
 30
0.0
 40
22.0
100
AcDbArc
 50
0.0
 51
180.0
  0
LINE
  5
D9
330
1F
100
AcDbEntity
  8
0
  6
Continuous
 62
     7
370
    25
100
AcDbLine
 10
284.8719942794
 20
88.9058431394
 30
0.0
 11
284.8719942794
 21
95.9058431394
 31
0.0
  0
LINE
  5
DA
330
1F
100
AcDbEntity
  8
0
  6
Continuous
 62
     7
370
    25
100
AcDbLine
 10
284.8719942794
 20
81.9058431394
 30
0.0
 11
284.8719942794
 21
88.9058431394
 31
0.0
  0
LINE
  5
DB
330
1F
100
AcDbEntity
  8
0
  6
Continuous
 62
     7
370
    25
100
AcDbLine
 10
284.8719942794
 20
140.9058431394
 30
0.0
 11
284.8719942794
 21
147.9058431394
 31
0.0
  0
LINE
  5
DC
330
1F
100
AcDbEntity
  8
0
  6
Continuous
 62
     7
370
    25
100
AcDbLine
 10
284.8719942794
 20
133.9058431394
 30
0.0
 11
284.8719942794
 21
140.9058431394
 31
0.0
  0
LINE
  5
DD
330
1F
100
AcDbEntity
  8
0
  6
Continuous
 62
     1
370
    25
100
AcDbLine
 10
225.8719942794
 20
110.9058431394
 30
0.0
 11
269.8719942794
 21
110.9058431394
 31
0.0
  0
INSERT
  5
E9
330
1F
100
AcDbEntity
  8
FORMAT
 62
     7
100
AcDbBlockReference
  2
SW_CENTERMARKSYMBOL_2
 10
247.8719942794
 20
140.9058431394
 30
0.0
  0
LINE
  5
EA
330
1F
100
AcDbEntity
  8
0
  6
Continuous
 62
     7
370
    25
100
AcDbLine
 10
117.3381372123
 20
-9.9949206089
 30
0.0
 11
147.3381372123
 21
-9.9949206089
 31
0.0
  0
LINE
  5
EB
330
1F
100
AcDbEntity
  8
0
  6
Continuous
 62
     7
370
    25
100
AcDbLine
 10
147.3381372123
 20
34.0050793911
 30
0.0
 11
117.3381372123
 21
34.0050793911
 31
0.0
  0
LINE
  5
EC
330
1F
100
AcDbEntity
  8
0
  6
Continuous
 62
     7
370
    25
100
AcDbLine
 10
179.3381372123
 20
34.0050793911
 30
0.0
 11
147.3381372123
 21
34.0050793911
 31
0.0
  0
LINE
  5
ED
330
1F
100
AcDbEntity
  8
0
  6
Continuous
 62
     7
370
    25
100
AcDbLine
 10
176.333673526
 20
-9.9949206089
 30
0.0
 11
179.3381372123
 21
-9.9949206089
 31
0.0
  0
LINE
  5
EE
330
1F
100
AcDbEntity
  8
0
  6
Continuous
 62
     7
370
    25
100
AcDbLine
 10
147.3381372123
 20
-9.9949206089
 30
0.0
 11
162.3381372123
 21
-9.9949206089
 31
0.0
  0
LINE
  5
EF
330
1F
100
AcDbEntity
  8
0
  6
Continuous
 62
     7
370
    25
100
AcDbLine
 10
162.3381372123
 20
-9.9949206089
 30
0.0
 11
162.3381372123
 21
-24.9949206089
 31
0.0
  0
LINE
  5
F0
330
1F
100
AcDbEntity
  8
0
  6
Continuous
 62
     7
370
    25
100
AcDbLine
 10
176.3381372123
 20
-24.9949206089
 30
0.0
 11
176.3381372123
 21
-9.9935143626
 31
0.0
  0
LINE
  5
F1
330
1F
100
AcDbEntity
  8
0
  6
Continuous
 62
     7
370
    25
100
AcDbLine
 10
110.3381372123
 20
-8.8592987722
 30
0.0
 11
110.3381372123
 21
-24.9949206089
 31
0.0
  0
LINE
  5
F2
330
1F
100
AcDbEntity
  8
0
  6
Continuous
 62
     7
370
    25
100
AcDbLine
 10
124.3381372123
 20
-24.9949206089
 30
0.0
 11
124.3381372123
 21
-9.9949206089
 31
0.0
  0
ARC
  5
F3
330
1F
100
AcDbEntity
  8
0
  6
Continuous
 62
     7
370
    25
100
AcDbCircle
 10
117.3381372123
 20
12.0050793911
 30
0.0
 40
22.0
100
AcDbArc
 50
90.0
 51
270.0
  0
SPLINE
  5
F4
330
1F
100
AcDbEntity
  8
0
  6
Continuous
 62
     7
370
    25
100
AcDbSpline
210
0.0
220
0.0
230
1.0
 70
     8
 71
     3
 72
    27
 73
    23
 74
     0
 42
0.00000001
 43
0.00000001
 40
0.0
 40
0.0
 40
0.0
 40
0.0
 40
0.0026160515322905
 40
0.0556780802630193
 40
0.1059001752218233
 40
0.1575133375507135
 40
0.2090209802032978
 40
0.2619079544976681
 40
0.315482217454964
 40
0.3706154887078374
 40
0.423920723644398
 40
0.478923084490742
 40
0.5297639097279421
 40
0.5821307240020337
 40
0.6322524185796007
 40
0.6837215977501583
 40
0.7358729474126209
 40
0.7894372308498395
 40
0.8432928032808175
 40
0.8987738759031301
 40
0.948684728790132
 40
1.0
 40
1.0
 40
1.0
 40
1.0
 10
176.3336735260475
 20
-9.993507574889003
 30
0.0
 10
176.3351497821871
 20
-9.993974869363411
 30
0.0
 10
176.3665693115097
 20
-10.00392041475167
 30
0.0
 10
176.2514768424983
 20
-9.967237716956973
 30
0.0
 10
175.9787896673394
 20
-9.882370700351514
 30
0.0
 10
175.5191875261405
 20
-9.746145683812907
 30
0.0
 10
174.8971033156121
 20
-9.576200180281466
 30
0.0
 10
174.1184575309092
 20
-9.386990675945555
 30
0.0
 10
173.1888451390716
 20
-9.19651715512823
 30
0.0
 10
172.1428283143755
 20
-9.029917708080339
 30
0.0
 10
171.001477230976
 20
-8.907016493041517
 30
0.0
 10
169.8372710019221
 20
-8.846507643981395
 30
0.0
 10
168.6658243882669
 20
-8.851988091360175
 30
0.0
 10
167.5496440587264
 20
-8.918598279506831
 30
0.0
 10
166.4806785697661
 20
-9.038256170690008
 30
0.0
 10
165.4905230984831
 20
-9.196610909455934
 30
0.0
 10
164.5828940992551
 20
-9.381400888624366
 30
0.0
 10
163.7917406100388
 20
-9.572676297646202
 30
0.0
 10
163.1386642165443
 20
-9.75120594332033
 30
0.0
 10
162.6776167299806
 20
-9.888357180093493
 30
0.0
 10
162.3909765218015
 20
-9.97800637104652
 30
0.0
 10
162.3559124758302
 20
-9.989230620914654
 30
0.0
 10
162.3381372123319
 20
-9.99492060886243
 30
0.0
  0
LINE
  5
F5
330
1F
100
AcDbEntity
  8
0
  6
Continuous
 62
     7
370
    25
100
AcDbLine
 10
179.3381372123
 20
34.0050793911
 30
0.0
 11
179.3381372123
 21
-9.9949206089
 31
0.0
  0
LINE
  5
F6
330
1F
100
AcDbEntity
  8
0
  6
Continuous
 62
     7
370
    25
100
AcDbLine
 10
162.3381372123
 20
-24.9949206089
 30
0.0
 11
176.3381372123
 21
-24.9949206089
 31
0.0
  0
LINE
  5
F7
330
1F
100
AcDbEntity
  8
0
  6
Continuous
 62
     7
370
    25
100
AcDbLine
 10
110.3381372123
 20
-24.9949206089
 30
0.0
 11
124.3381372123
 21
-24.9949206089
 31
0.0
  0
LINE
  5
F8
330
1F
100
AcDbEntity
  8
0
  6
Continuous
 62
     1
370
    25
100
AcDbLine
 10
147.3381372123
 20
34.0050793911
 30
0.0
 11
147.3381372123
 21
-9.9949206089
 31
0.0
  0
INSERT
  5
104
330
1F
100
AcDbEntity
  8
FORMAT
 62
     7
100
AcDbBlockReference
  2
SW_CENTERMARKSYMBOL_3
 10
117.3381372123
 20
12.0050793911
 30
0.0
  0
LINE
  5
105
330
1F
100
AcDbEntity
  8
0
  6
Continuous
 62
     7
370
    25
100
AcDbLine
 10
270.5789003179
 20
55.8201755813
 30
0.0
 11
259.5057194555
 21
49.4277643358
 31
0.0
  0
LINE
  5
106
330
1F
100
AcDbEntity
  8
0
  6
Continuous
 62
     7
370
    25
100
AcDbLine
 10
269.9496954379
 20
4.6514958474
 30
0.0
 11
292.5771124359
 21
17.7140256366
 31
0.0
  0
LINE
  5
107
330
1F
100
AcDbEntity
  8
0
  6
Continuous
 62
     7
370
    25
100
AcDbLine
 10
215.7373859434
 20
-26.3840282374
 30
0.0
 11
215.7373859434
 21
-39.1670811945
 31
0.0
  0
LINE
  5
108
330
1F
100
AcDbEntity
  8
0
  6
Continuous
 62
     7
370
    25
100
AcDbLine
 10
259.7373859434
 20
-39.1670811945
 30
0.0
 11
259.7373859434
 21
-13.0377752141
 31
0.0
  0
LINE
  5
109
330
1F
100
AcDbEntity
  8
0
  6
Continuous
 62
     7
370
    25
100
AcDbLine
 10
262.8495792865
 20
47.4973951444
 30
0.0
 11
251.8437032254
 21
53.8509521552
 31
0.0
  0
LINE
  5
10A
330
1F
100
AcDbEntity
  8
0
  6
Continuous
 62
     7
370
    25
100
AcDbLine
 10
244.8442720969
 20
41.7262680819
 30
0.0
 11
255.85015058
 21
35.3727096729
 31
0.0
  0
LINE
  5
10B
330
1F
100
AcDbEntity
  8
0
  6
Continuous
 62
     7
370
    25
100
AcDbLine
 10
226.0799277816
 20
-16.189280897
 30
0.0
 11
215.0741506037
 21
-9.8357809702
 31
0.0
  0
LINE
  5
10C
330
1F
100
AcDbEntity
  8
0
  6
Continuous
 62
     7
370
    25
100
AcDbLine
 10
208.0747194752
 20
-21.9604650436
 30
0.0
 11
219.0804641773
 21
-28.3139462224
 31
0.0
  0
SPLINE
  5
10D
330
1F
100
AcDbEntity
  8
0
  6
Continuous
 62
     7
370
    25
100
AcDbSpline
210
0.0
220
0.0
230
1.0
 70
     8
 71
     3
 72
    38
 73
    34
 74
     0
 42
0.00000001
 43
0.00000001
 40
0.0
 40
0.0
 40
0.0
 40
0.0
 40
0.0181969700773137
 40
0.0497673072099653
 40
0.0813093326398619
 40
0.1129972883503073
 40
0.1449307052036237
 40
0.1771836555360424
 40
0.2098053568601339
 40
0.2428222535782041
 40
0.2762404403183313
 40
0.3100483104828204
 40
0.3442192913424057
 40
0.3787145366358614
 40
0.4134854765088379
 40
0.4484761641729015
 40
0.4836254003355595
 40
0.5188686539475398
 40
0.554139007320496
 40
0.5893490810600376
 40
0.6244352207002768
 40
0.6593380208063754
 40
0.6940042655757241
 40
0.7283891227260474
 40
0.7624586102646579
 40
0.796192328709994
 40
0.8295863993904913
 40
0.8626564909248109
 40
0.8954407603070683
 40
0.9280024957103324
 40
0.9604322392558119
 40
0.9906342768168023
 40
1.0
 40
1.0
 40
1.0
 40
1.0
 10
259.7373859433545
 20
-13.03777521412317
 30
0.0
 10
259.737737675118
 20
-12.98570981632435
 30
0.0
 10
259.7386996343151
 20
-12.84331497607053
 30
0.0
 10
259.7511249447192
 20
-12.55056305328663
 30
0.0
 10
259.7841680875642
 20
-12.14351890081279
 30
0.0
 10
259.8410997912008
 20
-11.66897465001781
 30
0.0
 10
259.9258929364789
 20
-11.13176454522086
 30
0.0
 10
260.0422133232414
 20
-10.53574433514766
 30
0.0
 10
260.1930793680338
 20
-9.885861017208393
 30
0.0
 10
260.3808909535301
 20
-9.187570290362487
 30
0.0
 10
260.6073544730987
 20
-8.446976681949273
 30
0.0
 10
260.8734457641938
 20
-7.670732131862732
 30
0.0
 10
261.1793781800873
 20
-6.865964421598297
 30
0.0
 10
261.5245875989812
 20
-6.040171280641045
 30
0.0
 10
261.9077314643564
 20
-5.201107485254024
 30
0.0
 10
262.3267012088401
 20
-4.356665945539541
 30
0.0
 10
262.7786459658307
 20
-3.51475876185885
 30
0.0
 10
263.2600020023405
 20
-2.683207067226714
 30
0.0
 10
263.7664346014172
 20
-1.869785155459391
 30
0.0
 10
264.2929730112324
 20
-1.08191999392027
 30
0.0
 10
264.8340889381709
 20
-0.3265577241295358
 30
0.0
 10
265.3838899688033
 20
0.3900822751855583
 30
0.0
 10
265.9360960090351
 20
1.062440624536736
 30
0.0
 10
266.4841267088894
 20
1.68570997576931
 30
0.0
 10
267.0211973762276
 20
2.255919793260199
 30
0.0
 10
267.5404244177065
 20
2.770012149071289
 30
0.0
 10
268.0349261600023
 20
3.22589558990662
 30
0.0
 10
268.4979513233876
 20
3.622501832571987
 30
0.0
 10
268.9228856645896
 20
3.959730753149166
 30
0.0
 10
269.3036475843654
 20
4.238687719829558
 30
0.0
 10
269.6260395467222
 20
4.455666196914048
 30
0.0
 10
269.8315251889445
 20
4.582695529438605
 30
0.0
 10
269.927078003998
 20
4.638327671324386
 30
0.0
 10
269.9496954379476
 20
4.651495847414995
 30
0.0
  0
SPLINE
  5
10E
330
1F
100
AcDbEntity
  8
0
  6
Continuous
 62
     7
370
    25
100
AcDbSpline
210
0.0
220
0.0
230
1.0
 70
     8
 71
     3
 72
    38
 73
    34
 74
     0
 42
0.00000001
 43
0.00000001
 40
0.0
 40
0.0
 40
0.0
 40
0.0
 40
0.0063459340283143
 40
0.0396241195915069
 40
0.0730045161402858
 40
0.1064322153682665
 40
0.1398533734480613
 40
0.1732359351054808
 40
0.2065570092576432
 40
0.2398023191136306
 40
0.2729651512969357
 40
0.3060451255299138
 40
0.3390469702679197
 40
0.3719794130104846
 40
0.4048542335914057
 40
0.4376854881865258
 40
0.47048888802545
 40
0.5032813048132411
 40
0.5360803699701672
 40
0.5689005256088123
 40
0.6017575592329962
 40
0.6346695470147565
 40
0.6676540943715485
 40
0.7007279164289306
 40
0.7339063118048954
 40
0.767202490176412
 40
0.8006267166689596
 40
0.8341852452711533
 40
0.8678790349948404
 40
0.9017022831359792
 40
0.9356408758715508
 40
0.9696709484474038
 40
1.0
 40
1.0
 40
1.0
 40
1.0
 10
245.5857144511509
 20
41.29824252158146
 30
0.0
 10
245.4802002219284
 20
41.23162107481038
 30
0.0
 10
244.8213675869422
 20
40.81563563240936
 30
0.0
 10
243.6370820384323
 20
39.98361143610362
 30
0.0
 10
242.0349877046667
 20
38.80058250791868
 30
0.0
 10
240.4659404417851
 20
37.54693944119471
 30
0.0
 10
238.9298535355507
 20
36.2342089203373
 30
0.0
 10
237.4304137140592
 20
34.86410064500991
 30
0.0
 10
235.9695226848466
 20
33.44062909048105
 30
0.0
 10
234.5490272867449
 20
31.96691386657485
 30
0.0
 10
233.1703951182342
 20
30.44604182917997
 30
0.0
 10
231.8348932856265
 20
28.8808303472868
 30
0.0
 10
230.5436277441314
 20
27.27390428244525
 30
0.0
 10
229.2976086085906
 20
25.62770017241052
 30
0.0
 10
228.0977951133956
 20
23.94449427640436
 30
0.0
 10
226.9451330100017
 20
22.22642441869485
 30
0.0
 10
225.8405827999921
 20
20.47551134286837
 30
0.0
 10
224.785141598364
 20
18.69367720714267
 30
0.0
 10
223.7798971169966
 20
16.88282839897123
 30
0.0
 10
222.8260192908767
 20
15.04485270305713
 30
0.0
 10
221.9247418129539
 20
13.18158840252346
 30
0.0
 10
221.0773441230982
 20
11.29476608826488
 30
0.0
 10
220.2851822190907
 20
9.386044484348576
 30
0.0
 10
219.5497235081368
 20
7.457078056936007
 30
0.0
 10
218.8725597370681
 20
5.50954658383836
 30
0.0
 10
218.2554120745853
 20
3.545193136935344
 30
0.0
 10
217.7001579457679
 20
1.565875775629329
 30
0.0
 10
217.208759445973
 20
-0.4263769893275738
 30
0.0
 10
216.7835306098978
 20
-2.429263332385325
 30
0.0
 10
216.4260830994034
 20
-4.440222985593341
 30
0.0
 10
216.1411587599716
 20
-6.455964795692767
 30
0.0
 10
215.9301070600214
 20
-8.39951050102532
 30
0.0
 10
215.8527665772499
 20
-9.66694938319122
 30
0.0
 10
215.8163200978913
 20
-10.26422629951865
 30
0.0
  0
LWPOLYLINE
  5
10F
330
1F
100
AcDbEntity
  8
0
  6
Continuous
 62
     7
370
    25
100
AcDbPolyline
 90
       98
 70
   128
 43
0.0
 10
266.0216571908
 20
45.747589839
 10
266.0542815582
 20
44.5659563467
 10
266.1520178223
 20
43.3516117432
 10
266.3144560433
 20
42.1096494117
 10
266.5409148989
 20
40.8452785739
 10
266.8304445419
 20
39.5638024404
 10
267.1818305844
 20
38.2705959675
 10
267.5935991911
 20
36.9710833126
 10
268.0640232616
 20
35.6707150833
 10
268.5911296736
 20
34.374945476
 10
269.1727075599
 20
33.0892093986
 10
269.8063175805
 20
31.818899675
 10
270.4893021548
 20
30.5693444259
 10
271.2187966083
 20
29.34578472
 10
271.9917411876
 20
28.1533525921
 10
272.8048938946
 20
26.9970495168
 10
273.6548440842
 20
25.8817254312
 10
274.53802677
 20
24.8120583919
 10
275.4507375768
 20
23.7925349544
 10
276.3891482783
 20
22.8274313543
 10
277.3493228539
 20
21.9207955714
 10
278.3272339978
 20
21.0764303512
 10
279.3187800108
 20
20.297877255
 10
280.3198020043
 20
19.5884018051
 10
281.3261013442
 20
18.9509797879
 10
282.3334572614
 20
18.388284773
 10
283.337644555
 20
17.9026768988
 10
284.3344513146
 20
17.4961929735
 10
285.3196965861
 20
17.1705379319
 10
286.2892479086
 20
16.9270776845
 10
287.2390386469
 20
16.7668333881
 10
288.1650850484
 20
16.690477163
 10
289.0635029529
 20
16.6983292738
 10
289.9305240833
 20
16.7903567859
 10
290.7625118517
 20
16.9661737041
 10
291.5559766123
 20
17.225042591
 10
292.3075902982
 20
17.5658776606
 10
293.0142003803
 20
17.9872493321
 10
293.6728430904
 20
18.4873902263
 10
294.2807558521
 20
19.0642025785
 10
294.835388868
 20
19.7152670373
 10
295.3344158144
 20
20.437852812
 10
295.775743599
 20
21.2289291267
 10
296.1575211396
 20
22.0851779326
 10
296.4781471285
 20
23.0030078245
 10
296.7362767489
 20
23.9785691049
 10
296.9308273156
 20
25.0077699307
 10
297.0609828157
 20
26.0862934761
 10
297.126197332
 20
27.2096160384
 10
297.126197332
 20
28.3730260125
 10
297.0609828157
 20
29.5716436526
 10
296.9308273156
 20
30.8004415397
 10
296.7362767489
 20
32.0542656686
 10
296.4781471285
 20
33.327857065
 10
296.1575211396
 20
34.615873844
 10
295.775743599
 20
35.9129136158
 10
295.3344158144
 20
37.2135361446
 10
294.835388868
 20
38.5122861676
 10
294.2807558521
 20
39.8037162759
 10
293.6728430904
 20
41.0824097628
 10
293.0142003803
 20
42.3430033434
 10
292.3075902982
 20
43.5802096502
 10
291.5559766123
 20
44.78883941
 10
290.7625118517
 20
45.9638232095
 10
289.9305240833
 20
47.1002327583
 10
289.0635029529
 20
48.1933015598
 10
288.1650850484
 20
49.2384449037
 10
287.2390386469
 20
50.2312790955
 10
286.2892479086
 20
51.1676398436
 10
285.3196965861
 20
52.0435997256
 10
284.3344513146
 20
52.8554846614
 10
283.337644555
 20
53.5998893233
 10
282.3334572614
 20
54.2736914196
 10
281.3261013442
 20
54.87406479
 10
280.3198020043
 20
55.39849126
 10
279.3187800108
 20
55.8447712028
 10
278.3272339978
 20
56.2110327651
 10
277.3493228539
 20
56.4957397188
 10
276.3891482783
 20
56.6976979038
 10
275.4507375768
 20
56.8160602374
 10
274.53802677
 20
56.8503302668
 10
273.6548440842
 20
56.8003642516
 10
272.8048938946
 20
56.6663717667
 10
271.9917411876
 20
56.448914823
 10
271.2187966083
 20
56.1489055106
 10
270.4893021548
 20
55.7676021728
 10
269.8063175805
 20
55.3066041282
 10
269.1727075599
 20
54.767844963
 10
268.5911296736
 20
54.1535844203
 10
268.0640232616
 20
53.4663989222
 10
267.5935991911
 20
52.7091707636
 10
267.1818305844
 20
51.8850760225
 10
266.8304445419
 20
50.9975712387
 10
266.5409148989
 20
50.0503789156
 10
266.3144560433
 20
49.047471907
 10
266.1520178223
 20
47.9930567534
 10
266.0542815582
 20
46.8915560385
 10
266.0216571908
 20
45.747589839
  0
LWPOLYLINE
  5
110
330
1F
100
AcDbEntity
  8
0
  6
Continuous
 62
     7
370
    25
100
AcDbPolyline
 90
       84
 70
   128
 43
0.0
 10
270.2642978779
 20
43.2983655035
 10
270.2966998268
 20
44.2677235777
 10
270.3937200779
 20
45.1941187627
 10
270.5548029082
 20
46.0722447509
 10
270.7790256496
 20
46.8970717161
 10
271.0651039747
 20
47.6638751242
 10
271.4113992528
 20
48.3682627946
 10
271.8159279357
 20
49.0062000586
 10
272.2763729199
 20
49.5740328694
 10
272.7900968182
 20
50.068508732
 10
273.3541570667
 20
50.4867953334
 10
273.9653227792
 20
50.8264967658
 10
274.620093254
 20
51.0856672503
 10
275.314718025
 20
51.2628222817
 10
276.0452183445
 20
51.3569471322
 10
276.8074099729
 20
51.367502663
 10
277.5969271454
 20
51.294428413
 10
278.4092475792
 20
51.1381429449
 10
279.2397183765
 20
50.8995414478
 10
280.0835826757
 20
50.5799906094
 10
280.9360068985
 20
50.1813207879
 10
281.7921084361
 20
49.705815528
 10
282.6469836166
 20
49.1561984808
 10
283.4957357922
 20
48.535617803
 10
284.3335033875
 20
47.8476281244
 10
285.1554877453
 20
47.0961701876
 10
285.9569806139
 20
46.2855482757
 10
286.7333911146
 20
45.4204055575
 10
287.4802720384
 20
44.5056974922
 10
288.193345319
 20
43.5466634448
 10
288.8685265372
 20
42.5487966754
 10
289.5019483162
 20
41.5178128745
 10
290.0899824733
 20
40.459617424
 10
290.6292608022
 20
39.3802715716
 10
291.1166943654
 20
38.2859577125
 10
291.5494911876
 20
37.1829439775
 10
291.9251722478
 20
36.0775483294
 10
292.241585679
 20
34.9761023742
 10
292.4969190936
 20
33.8849150948
 10
292.689709965
 20
32.8102367129
 10
292.8188540044
 20
31.7582228891
 10
292.8836114867
 20
30.7348994633
 10
292.8836114867
 20
29.7461279394
 10
292.8188540044
 20
28.7975719112
 10
292.689709965
 20
27.8946646216
 10
292.4969190936
 20
27.0425778418
 10
292.241585679
 20
26.2461922478
 10
291.9251722478
 20
25.5100694642
 10
291.5494911876
 20
24.8384259355
 10
291.1166943654
 20
24.2351087751
 10
290.6292608022
 20
23.703573729
 10
290.0899824733
 20
23.2468653819
 10
289.5019483162
 20
22.8675997177
 10
288.8685265372
 20
22.567949136
 10
288.193345319
 20
22.349630008
 10
287.4802720384
 20
22.213892846
 10
286.7333911146
 20
22.1615151401
 10
285.9569806139
 20
22.1927969051
 10
285.1554877453
 20
22.3075589619
 10
284.3335033875
 20
22.5051439638
 10
283.4957357922
 20
22.7844201618
 10
282.6469836166
 20
23.1437878872
 10
281.7921084361
 20
23.581188714
 10
280.9360068984
 20
24.0941172502
 10
280.0835826757
 20
24.6796354873
 10
279.2397183765
 20
25.3343896301
 10
278.4092475792
 20
26.0546293059
 10
277.5969271454
 20
26.8362290473
 10
276.8074099729
 20
27.6747119217
 10
276.0452183445
 20
28.5652751751
 10
275.314718025
 20
29.5028177418
 10
274.620093254
 20
30.4819694629
 10
273.9653227792
 20
31.497121846
 10
273.3541570667
 20
32.5424601903
 10
272.7900968182
 20
33.6119968922
 10
272.2763729199
 20
34.6996057426
 10
271.8159279357
 20
35.7990570163
 10
271.4113992528
 20
36.9040531561
 10
271.0651039747
 20
38.008264844
 10
270.7790256496
 20
39.1053672557
 10
270.5548029082
 20
40.1890762877
 10
270.3937200779
 20
41.2531845529
 10
270.2966998268
 20
42.2915969355
 10
270.2642978779
 20
43.2983655035
  0
SPLINE
  5
111
330
1F
100
AcDbEntity
  8
0
  6
Continuous
 62
     7
370
    25
100
AcDbSpline
210
0.0
220
0.0
230
1.0
 70
     8
 71
     3
 72
    27
 73
    23
 74
     0
 42
0.00000001
 43
0.00000001
 40
0.0
 40
0.0
 40
0.0
 40
0.0
 40
0.010749665017001
 40
0.0640727786977833
 40
0.118775034051004
 40
0.173462720201057
 40
0.2264442299798058
 40
0.27942146006913
 40
0.3302121552496221
 40
0.3810128759460595
 40
0.4325780606306803
 40
0.4841511052389409
 40
0.5381712629852687
 40
0.5921851982858275
 40
0.6466513731117787
 40
0.7011048832244287
 40
0.753379322464011
 40
0.8056542490703472
 40
0.8565682242424533
 40
0.9074920314514228
 40
0.95968831298618
 40
1.0
 40
1.0
 40
1.0
 40
1.0
 10
255.8585682582906
 20
35.38637956600309
 30
0.0
 10
255.9041532513946
 20
35.35452014834643
 30
0.0
 10
256.1758600599766
 20
35.16462386658072
 30
0.0
 10
256.775730596933
 20
34.97584370597641
 30
0.0
 10
257.6282077477539
 20
34.85828460254575
 30
0.0
 10
258.5184930984224
 20
34.95604653993927
 30
0.0
 10
259.3914511649612
 20
35.25827347435574
 30
0.0
 10
260.2111054677363
 20
35.74046077387859
 30
0.0
 10
260.9593032086917
 20
36.38963070545588
 30
0.0
 10
261.6306516133148
 20
37.17269139191414
 30
0.0
 10
262.2205951657406
 20
38.08086456426875
 30
0.0
 10
262.7349396256643
 20
39.09856429169377
 30
0.0
 10
263.1611883831702
 20
40.19812039738249
 30
0.0
 10
263.4984344537763
 20
41.34958905168303
 30
0.0
 10
263.7363646606312
 20
42.49994268968432
 30
0.0
 10
263.8750648734303
 20
43.59744894992257
 30
0.0
 10
263.915072208038
 20
44.60078944531541
 30
0.0
 10
263.863931769657
 20
45.47988131353262
 30
0.0
 10
263.7233923038596
 20
46.22330223025835
 30
0.0
 10
263.4936118843821
 20
46.82375205649014
 30
0.0
 10
263.2059373495096
 20
47.25612066468182
 30
0.0
 10
262.9517503936189
 20
47.41439069049049
 30
0.0
 10
262.8409847464035
 20
47.48335914633456
 30
0.0
  0
LWPOLYLINE
  5
112
330
1F
100
AcDbEntity
  8
0
  6
Continuous
 62
     7
370
    25
100
AcDbPolyline
 90
       98
 70
   128
 43
0.0
 10
222.1810367573
 20
-30.1865919644
 10
223.220620782
 20
-29.624120174
 10
224.3210931647
 20
-29.1016748786
 10
225.4778381419
 20
-28.6214473952
 10
226.686003923
 20
-28.1854519648
 10
227.940523041
 20
-27.7955173038
 10
229.2361336066
 20
-27.4532789337
 10
230.5674013789
 20
-27.1601723211
 10
231.9287425582
 20
-26.9174268569
 10
233.3144472066
 20
-26.7260607002
 10
234.718703197
 20
-26.5868765069
 10
236.135620592
 20
-26.5004580641
 10
237.5592563475
 20
-26.4671678406
 10
238.9836392404
 20
-26.4871454672
 10
240.4027949139
 20
-26.5603071509
 10
241.8107709359
 20
-26.6863460261
 10
243.2016617657
 20
-26.8647334419
 10
244.5696335236
 20
-27.0947211796
 10
245.9089484609
 20
-27.3753445906
 10
247.2139890251
 20
-27.7054266429
 10
248.4792814226
 20
-28.0835828575
 10
249.6995185774
 20
-28.508227116
 10
250.8695823909
 20
-28.9775783127
 10
251.9845652086
 20
-29.4896678256
 10
253.0397904053
 20
-30.0423477733
 10
254.0308319997
 20
-30.633300024
 10
254.953533219
 20
-31.2600459186
 10
255.8040239335
 20
-31.9199566671
 10
256.5787368898
 20
-32.6102643744
 10
257.2744226723
 20
-33.3280736501
 10
257.8881633332
 20
-34.0703737527
 10
258.4173846308
 20
-34.8340512175
 10
258.8598668271
 20
-35.6159029158
 10
259.213753998
 20
-36.41264949
 10
259.4775618177
 20
-37.220949108
 10
259.6501837846
 20
-38.0374114802
 10
259.7308958621
 20
-38.8586120799
 10
259.7193595157
 20
-39.6811065062
 10
259.6156231328
 20
-40.5014449317
 10
259.42012182
 20
-41.3161865719
 10
259.1336755776
 20
-42.1219141174
 10
258.7574858608
 20
-42.9152480667
 10
258.2931305399
 20
-43.6928609016
 10
257.7425572825
 20
-44.4514910435
 10
257.1080753842
 20
-45.1879565341
 10
256.3923460827
 20
-45.8991683811
 10
255.5983713952
 20
-46.5821435148
 10
254.7294815277
 20
-47.2340173003
 10
253.7893209061
 20
-47.8520555523
 10
252.7818328908
 20
-48.4336660036
 10
251.7112432367
 20
-48.9764091779
 10
250.5820423688
 20
-49.4780086216
 10
249.3989665481
 20
-49.9363604523
 10
248.1669780056
 20
-50.3495421833
 10
246.8912441295
 20
-50.7158207867
 10
245.577115791
 20
-51.0336599628
 10
244.2301049009
 20
-51.3017265836
 10
242.8558612912
 20
-51.5188962846
 10
241.4601490171
 20
-51.6842581805
 10
240.0488221809
 20
-51.7971186861
 10
238.6278003778
 20
-51.8570044252
 10
237.2030438672
 20
-51.8636642162
 10
235.7805285729
 20
-51.8170701256
 10
234.3662210185
 20
-51.7174175853
 10
232.9660533014
 20
-51.5651245727
 10
231.5858982115
 20
-51.3608298574
 10
230.2315445989
 20
-51.1053903227
 10
228.9086730934
 20
-50.7998773706
 10
227.6228322778
 20
-50.4455724286
 10
226.3794154154
 20
-50.0439615749
 10
225.1836378285
 20
-49.5967293049
 10
224.0405150239
 20
-49.1057514661
 10
222.9548416559
 20
-48.5730873903
 10
221.931171416
 20
-48.0009712557
 10
220.9737979329
 20
-47.3918027162
 10
220.0867367637
 20
-46.7481368363
 10
219.2737085511
 20
-46.0726733745
 10
218.5381234181
 20
-45.3682454591
 10
217.8830666644
 20
-44.6378077059
 10
217.3112858255
 20
-43.8844238244
 10
216.8251791492
 20
-43.1112537685
 10
216.4267855356
 20
-42.3215404821
 10
216.1177759861
 20
-41.5185962973
 10
215.8994465942
 20
-40.7057890409
 10
215.772713109
 20
-39.886527909
 10
215.738107095
 20
-39.0642491676
 10
215.7957737018
 20
-38.2424017395
 10
215.9454710556
 20
-37.4244327383
 10
216.1865712736
 20
-36.6137730104
 10
216.5180630978
 20
-35.8138227444
 10
216.9385561362
 20
-35.0279372096
 10
217.446286695
 20
-34.2594126831
 10
218.0391251757
 20
-33.5114726239
 10
218.7145850076
 20
-32.7872541526
 10
219.4698330776
 20
-32.089794893
 10
220.3017016127
 20
-31.4220202316
 10
221.2067014672
 20
-30.7867310476
 10
222.1810367573
 20
-30.1865919644
  0
LWPOLYLINE
  5
113
330
1F
100
AcDbEntity
  8
0
  6
Continuous
 62
     7
370
    25
100
AcDbPolyline
 90
       84
 70
   128
 43
0.0
 10
226.4236774444
 20
-32.6358162999
 10
225.6004378081
 20
-33.1484729198
 10
224.8467175117
 20
-33.6956035829
 10
224.1668337967
 20
-34.2740743743
 10
223.5646809755
 20
-34.8805718656
 10
223.0437081248
 20
-35.5116220942
 10
222.60689933
 20
-36.1636104614
 10
222.2567565924
 20
-36.8328024371
 10
221.9952854977
 20
-37.51536495
 10
221.8239837288
 20
-38.2073883441
 10
221.7438324867
 20
-38.9049087718
 10
221.7552908704
 20
-39.6039308995
 10
221.8582932474
 20
-40.3004507916
 10
222.0522496294
 20
-40.9904788453
 10
222.3360490517
 20
-41.6700626424
 10
222.7080659369
 20
-42.3353095884
 10
223.1661694062
 20
-42.9824092091
 10
223.7077354842
 20
-43.6076549764
 10
224.3296621295
 20
-44.2074655393
 10
225.0283870026
 20
-44.7784052371
 10
225.7999078708
 20
-45.3172037789
 10
226.6398055323
 20
-45.8207749755
 10
227.5432691294
 20
-46.2862344167
 10
228.5051237044
 20
-46.7109159929
 10
229.5198598415
 20
-47.0923871665
 10
230.5816652239
 20
-47.4284629053
 10
231.6844579266
 20
-47.7172181978
 10
232.8219212528
 20
-47.9569990798
 10
233.9875399156
 20
-48.1464321082
 10
235.1746373569
 20
-48.2844322277
 10
236.37641399
 20
-48.3702089861
 10
237.5859861472
 20
-48.403271062
 10
238.7964255087
 20
-48.3834290788
 10
240.0007987875
 20
-48.3107966894
 10
241.1922074425
 20
-48.1857899258
 10
242.3638271929
 20
-48.0091248153
 10
243.5089471067
 20
-47.7818132797
 10
244.6210080408
 20
-47.5051573388
 10
245.6936402109
 20
-47.1807416529
 10
246.7206996771
 20
-46.8104244456
 10
247.6963035358
 20
-46.3963268603
 10
248.6148636164
 20
-45.9408208105
 10
249.4711184899
 20
-45.4465153936
 10
250.260163606
 20
-44.9162419463
 10
250.9774793856
 20
-44.3530378268
 10
251.6189571091
 20
-43.7601290174
 10
252.18092245
 20
-43.140911646
 10
252.6601565218
 20
-42.4989325336
 10
253.0539143152
 20
-41.8378688785
 10
253.3599404211
 20
-41.1615071934
 10
253.5764819497
 20
-40.4737216168
 10
253.7022985707
 20
-39.7784517222
 10
253.736669618
 20
-39.0796799525
 10
253.6793982173
 20
-38.3814088093
 10
253.530812414
 20
-37.6876379263
 10
253.2917632941
 20
-37.0023411604
 10
252.9636201093
 20
-36.3294438294
 10
252.5482624341
 20
-35.6728002283
 10
252.0480693996
 20
-35.036171552
 10
251.4659060663
 20
-34.4232043521
 10
250.8051070129
 20
-33.8374096492
 10
250.0694572367
 20
-33.2821428222
 10
249.2631704728
 20
-32.7605843893
 10
248.390865059
 20
-32.2757217899
 10
247.4575374815
 20
-31.8303322731
 10
246.4685337563
 20
-31.4269669897
 10
245.4295188071
 20
-31.0679363795
 10
244.3464440175
 20
-30.7552969374
 10
243.2255131417
 20
-30.4908394338
 10
242.0731467703
 20
-30.2760786572
 10
240.8959455536
 20
-30.112244738
 10
239.7006523934
 20
-30.000276102
 10
238.4941138208
 20
-29.9408140955
 10
237.2832407795
 20
-29.9341993114
 10
236.0749690405
 20
-29.9804696386
 10
234.876219475
 20
-30.0793600448
 10
233.6938584119
 20
-30.2303040948
 10
232.5346583083
 20
-30.4324371947
 10
231.4052589575
 20
-30.6846015445
 10
230.3121294566
 20
-30.9853527695
 10
229.2615311525
 20
-31.332968194
 10
228.259481777
 20
-31.7254567083
 10
227.3117209783
 20
-32.1605701738
 10
226.4236774444
 20
-32.6358162999
  0
SPLINE
  5
114
330
1F
100
AcDbEntity
  8
0
  6
Continuous
 62
     7
370
    25
100
AcDbSpline
210
0.0
220
0.0
230
1.0
 70
     8
 71
     3
 72
    22
 73
    18
 74
     0
 42
0.00000001
 43
0.00000001
 40
0.0
 40
0.0
 40
0.0
 40
0.0
 40
0.0691844344354387
 40
0.1383777954214711
 40
0.2074645122722399
 40
0.2765645745642188
 40
0.3476578115393528
 40
0.4187497029268176
 40
0.491680305207497
 40
0.5645914834122416
 40
0.6352279387641017
 40
0.7058586883123293
 40
0.7735742873465761
 40
0.8413032526837539
 40
0.9100514231473033
 40
0.978810072684544
 40
1.0
 40
1.0
 40
1.0
 40
1.0
 10
222.1810367572504
 20
-27.73696952876013
 30
0.0
 10
222.4560194885563
 20
-27.56796753996476
 30
0.0
 10
223.00602043093
 20
-27.22994175682172
 30
0.0
 10
223.8580253267843
 20
-26.57560113593828
 30
0.0
 10
224.6947636692524
 20
-25.83205238385201
 30
0.0
 10
225.4992780592966
 20
-24.99931087286737
 30
0.0
 10
226.2393417245623
 20
-24.09137928161263
 30
0.0
 10
226.8920331035858
 20
-23.11557078357364
 30
0.0
 10
227.4136473417896
 20
-22.09521766177702
 30
0.0
 10
227.7757914232925
 20
-21.06335133339621
 30
0.0
 10
227.9500111780007
 20
-20.0543667580617
 30
0.0
 10
227.9424291028332
 20
-19.108509475165
 30
0.0
 10
227.7538872996263
 20
-18.24453388851499
 30
0.0
 10
227.4127817802458
 20
-17.47383306483443
 30
0.0
 10
226.9159460574467
 20
-16.82753099763704
 30
0.0
 10
226.4583919281937
 20
-16.3950306973737
 30
0.0
 10
226.1439543777292
 20
-16.24328215085418
 30
0.0
 10
226.0698797333855
 20
-16.20753349552815
 30
0.0
  0
SPLINE
  5
115
330
1F
100
AcDbEntity
  8
0
  6
Continuous
 62
     7
370
    25
100
AcDbSpline
210
0.0
220
0.0
230
1.0
 70
     8
 71
     3
 72
    12
 73
     8
 74
     0
 42
0.00000001
 43
0.00000001
 40
0.0
 40
0.0
 40
0.0
 40
0.0
 40
0.1575766308828096
 40
0.3763194049896497
 40
0.5950128783442209
 40
0.797518330034089
 40
1.0
 40
1.0
 40
1.0
 40
1.0
 10
219.089339614563
 20
-28.29771866893307
 30
0.0
 10
219.2010461620545
 20
-28.35897089395466
 30
0.0
 10
219.4678201199056
 20
-28.50525147341163
 30
0.0
 10
220.0083569103615
 20
-28.53525557627167
 30
0.0
 10
220.6719773338218
 20
-28.42076228346323
 30
0.0
 10
221.4012580415871
 20
-28.15771785270001
 30
0.0
 10
221.9211206945176
 20
-27.87721347946461
 30
0.0
 10
222.1810367572504
 20
-27.73696952876013
 30
0.0
  0
LWPOLYLINE
  5
116
330
1F
100
AcDbEntity
  8
0
  6
Continuous
 62
     7
370
    25
100
AcDbPolyline
 90
       56
 70
   128
 43
0.0
 10
243.3942401928
 20
44.9311817272
 10
243.4265039568
 20
45.6013576703
 10
243.5228746412
 20
46.3000477941
 10
243.6820959067
 20
47.0181436042
 10
243.9020920607
 20
47.7462836236
 10
244.1799951168
 20
48.4749754337
 10
244.5121821838
 20
49.1947194221
 10
244.8943226951
 20
49.8961326255
 10
245.3214348649
 20
50.5700710499
 10
245.7879506328
 20
51.2077488774
 10
246.2877882523
 20
51.8008530022
 10
246.8144315756
 20
52.3416514052
 10
247.3610150016
 20
52.823093952
 10
247.9204129796
 20
53.2389043027
 10
248.4853329013
 20
53.5836617336
 10
249.0484101716
 20
53.8528718044
 10
249.6023042172
 20
54.04302495
 10
250.1397941822
 20
54.1516422333
 10
250.6538730628
 20
54.177307662
 10
251.1378390547
 20
54.119686648
 10
251.5853829211
 20
53.9795303693
 10
251.9906702432
 20
53.7586659774
 10
252.3484174809
 20
53.4599727772
 10
252.6539608519
 20
53.0873446917
 10
252.9033171312
 20
52.6456394975
 10
253.0932355782
 20
52.1406154976
 10
253.2212403155
 20
51.578856452
 10
253.2856626057
 20
50.967685749
 10
253.2856626057
 20
50.3150709334
 10
253.2212403155
 20
49.6295198373
 10
253.0932355782
 20
48.9199696678
 10
252.9033171312
 20
48.1956704964
 10
252.6539608519
 20
47.4660646704
 10
252.3484174809
 20
46.7406637175
 10
251.9906702432
 20
46.0289243487
 10
251.5853829211
 20
45.340125175
 10
251.1378390547
 20
44.6832457469
 10
250.6538730628
 20
44.0668494925
 10
250.1397941822
 20
43.4989720796
 10
249.6023042172
 20
42.9870166586
 10
249.0484101716
 20
42.5376573515
 10
248.4853329013
 20
42.156752244
 10
247.9204129796
 20
41.8492670168
 10
247.3610150016
 20
41.6192102099
 10
246.8144315756
 20
41.4695809657
 10
246.2877882523
 20
41.4023299302
 10
245.7879506328
 20
41.4183338235
 10
245.3214348649
 20
41.5173840104
 10
244.8943226951
 20
41.6981892203
 10
244.5121821838
 20
41.9583923806
 10
244.1799951168
 20
42.2946013453
 10
243.9020920607
 20
42.7024331164
 10
243.6820959067
 20
43.176570983
 10
243.5228746412
 20
43.710833833
 10
243.4265039568
 20
44.298256733
 10
243.3942401928
 20
44.9311817272
  0
LWPOLYLINE
  5
117
330
1F
100
AcDbEntity
  8
0
  6
Continuous
 62
     7
370
    25
100
AcDbPolyline
 90
       47
 70
   128
 43
0.0
 10
244.8084537552
 20
45.747589839
 10
244.8413839088
 20
46.3225281431
 10
244.9395609431
 20
46.9247767804
 10
245.1011560058
 20
47.5431169983
 10
245.3231588865
 20
48.1660302887
 10
245.6014340917
 20
48.7819129553
 10
245.9307978807
 20
49.3792922695
 10
246.3051148294
 20
49.9470401849
 10
246.7174121213
 20
50.4745806321
 10
247.1600094379
 20
50.9520865307
 10
247.6246620286
 20
51.3706628492
 10
248.1027142949
 20
51.7225123029
 10
248.5852610274
 20
52.0010806021
 10
249.0633132937
 20
52.2011785465
 10
249.5279658844
 20
52.31907869
 10
249.970563201
 20
52.352584776
 10
250.3828604929
 20
52.3010726494
 10
250.7571774416
 20
52.1655018839
 10
251.0865412307
 20
51.9483979061
 10
251.3648164358
 20
51.6538049525
 10
251.5868193165
 20
51.2872107324
 10
251.7484143792
 20
50.8554442024
 10
251.8465914135
 20
50.3665483561
 10
251.8795215671
 20
49.8296303981
 10
251.8465914135
 20
49.2546920941
 10
251.7484143792
 20
48.6524434567
 10
251.5868193165
 20
48.0341032388
 10
251.3648164358
 20
47.4111899485
 10
251.0865412307
 20
46.7953072818
 10
250.7571774416
 20
46.1979279676
 10
250.3828604929
 20
45.6301800522
 10
249.970563201
 20
45.102639605
 10
249.5279658844
 20
44.6251337064
 10
249.0633132937
 20
44.2065573879
 10
248.5852610274
 20
43.8547079342
 10
248.1027142949
 20
43.576139635
 10
247.6246620286
 20
43.3760416906
 10
247.1600094379
 20
43.2581415471
 10
246.7174121213
 20
43.2246354612
 10
246.3051148294
 20
43.2761475877
 10
245.9307978807
 20
43.4117183532
 10
245.6014340917
 20
43.628822331
 10
245.3231588865
 20
43.9234152846
 10
245.1011560058
 20
44.2900095048
 10
244.9395609431
 20
44.7217760347
 10
244.8413839088
 20
45.210671881
 10
244.8084537552
 20
45.747589839
  0
LWPOLYLINE
  5
118
330
1F
100
AcDbEntity
  8
0
  6
Continuous
 62
     7
370
    25
100
AcDbPolyline
 90
       56
 70
   128
 43
0.0
 10
206.6246875711
 20
-18.7555513983
 10
206.6569513351
 20
-18.0853754551
 10
206.7533220195
 20
-17.3866853314
 10
206.912543285
 20
-16.6685895212
 10
207.132539439
 20
-15.9404495018
 10
207.4104424951
 20
-15.2117576918
 10
207.7426295621
 20
-14.4920137033
 10
208.1247700734
 20
-13.7906005
 10
208.5518822432
 20
-13.1166620756
 10
209.0183980111
 20
-12.4789842481
 10
209.5182356305
 20
-11.8858801232
 10
210.0448789539
 20
-11.3450817203
 10
210.5914623799
 20
-10.8636391735
 10
211.1508603579
 20
-10.4478288227
 10
211.7157802796
 20
-10.1030713918
 10
212.2788575499
 20
-9.8338613211
 10
212.8327515955
 20
-9.6437081755
 10
213.3702415605
 20
-9.5350908922
 10
213.8843204411
 20
-9.5094254634
 10
214.368286433
 20
-9.5670464774
 10
214.8158302994
 20
-9.7072027561
 10
215.2211176215
 20
-9.9280671481
 10
215.5788648592
 20
-10.2267603482
 10
215.8844082302
 20
-10.5993884338
 10
216.1337645095
 20
-11.0410936279
 10
216.3236829565
 20
-11.5461176279
 10
216.4516876938
 20
-12.1078766735
 10
216.516109984
 20
-12.7190473765
 10
216.516109984
 20
-13.3716621921
 10
216.4516876938
 20
-14.0572132881
 10
216.3236829565
 20
-14.7667634576
 10
216.1337645095
 20
-15.4910626291
 10
215.8844082302
 20
-16.2206684551
 10
215.5788648592
 20
-16.9460694079
 10
215.2211176215
 20
-17.6578087767
 10
214.8158302994
 20
-18.3466079505
 10
214.368286433
 20
-19.0034873785
 10
213.8843204411
 20
-19.6198836329
 10
213.3702415605
 20
-20.1877610459
 10
212.8327515955
 20
-20.6997164668
 10
212.2788575499
 20
-21.1490757739
 10
211.7157802796
 20
-21.5299808814
 10
211.1508603579
 20
-21.8374661087
 10
210.5914623799
 20
-22.0675229156
 10
210.0448789539
 20
-22.2171521598
 10
209.5182356305
 20
-22.2844031953
 10
209.0183980111
 20
-22.2683993019
 10
208.5518822432
 20
-22.169349115
 10
208.1247700734
 20
-21.9885439052
 10
207.7426295621
 20
-21.7283407448
 10
207.4104424951
 20
-21.3921317801
 10
207.132539439
 20
-20.984300009
 10
206.912543285
 20
-20.5101621424
 10
206.7533220195
 20
-19.9758992924
 10
206.6569513351
 20
-19.3884763925
 10
206.6246875711
 20
-18.7555513983
  0
LWPOLYLINE
  5
119
330
1F
100
AcDbEntity
  8
0
  6
Continuous
 62
     7
370
    25
100
AcDbPolyline
 90
       47
 70
   128
 43
0.0
 10
208.0389011335
 20
-17.9391432864
 10
208.0718312871
 20
-17.3642049824
 10
208.1700083214
 20
-16.7619563451
 10
208.3316033841
 20
-16.1436161271
 10
208.5536062648
 20
-15.5207028368
 10
208.83188147
 20
-14.9048201701
 10
209.161245259
 20
-14.3074408559
 10
209.5355622077
 20
-13.7396929405
 10
209.9478594996
 20
-13.2121524933
 10
210.3904568162
 20
-12.7346465948
 10
210.8551094069
 20
-12.3160702762
 10
211.3331616732
 20
-11.9642208226
 10
211.8157084057
 20
-11.6856525233
 10
212.293760672
 20
-11.4855545789
 10
212.7584132627
 20
-11.3676544355
 10
213.2010105793
 20
-11.3341483495
 10
213.6133078712
 20
-11.385660476
 10
213.9876248199
 20
-11.5212312416
 10
214.316988609
 20
-11.7383352193
 10
214.5952638141
 20
-12.0329281729
 10
214.8172666948
 20
-12.3995223931
 10
214.9788617575
 20
-12.8312889231
 10
215.0770387918
 20
-13.3201847693
 10
215.1099689454
 20
-13.8571027273
 10
215.0770387918
 20
-14.4320410314
 10
214.9788617575
 20
-15.0342896687
 10
214.8172666948
 20
-15.6526298867
 10
214.5952638141
 20
-16.275543177
 10
214.316988609
 20
-16.8914258436
 10
213.9876248199
 20
-17.4888051578
 10
213.6133078712
 20
-18.0565530733
 10
213.2010105793
 20
-18.5840935204
 10
212.7584132627
 20
-19.061599419
 10
212.293760672
 20
-19.4801757376
 10
211.8157084057
 20
-19.8320251912
 10
211.3331616732
 20
-20.1105934904
 10
210.8551094069
 20
-20.3106914348
 10
210.3904568162
 20
-20.4285915783
 10
209.9478594996
 20
-20.4620976643
 10
209.5355622077
 20
-20.4105855378
 10
209.161245259
 20
-20.2750147722
 10
208.83188147
 20
-20.0579107945
 10
208.5536062648
 20
-19.7633178408
 10
208.3316033841
 20
-19.3967236207
 10
208.1700083214
 20
-18.9649570907
 10
208.0718312871
 20
-18.4760612444
 10
208.0389011335
 20
-17.9391432864
  0
LWPOLYLINE
  5
11A
330
1F
100
AcDbEntity
  8
0
  6
Continuous
 62
     1
370
    25
100
AcDbPolyline
 90
       38
 70
   128
 43
0.0
 10
243.3942401928
 20
32.6850600498
 10
243.4268645602
 20
31.5034265576
 10
243.5246008243
 20
30.2890819541
 10
243.6870390453
 20
29.0471196226
 10
243.9134979009
 20
27.7827487847
 10
244.2030275439
 20
26.5012726512
 10
244.5544135864
 20
25.2080661784
 10
244.9661821932
 20
23.9085535234
 10
245.4366062636
 20
22.6081852942
 10
245.9637126757
 20
21.3124156868
 10
246.5452905619
 20
20.0266796094
 10
247.1789005825
 20
18.7563698859
 10
247.8618851569
 20
17.5068146367
 10
248.5913796103
 20
16.2832549308
 10
249.3643241896
 20
15.0908228029
 10
250.1774768966
 20
13.9345197276
 10
251.0274270862
 20
12.819195642
 10
251.910609772
 20
11.7495286028
 10
252.8233205788
 20
10.7300051653
 10
253.7617312803
 20
9.7649015651
 10
254.721905856
 20
8.8582657822
 10
255.6998169999
 20
8.0139005621
 10
256.6913630129
 20
7.2353474659
 10
257.6923850064
 20
6.5258720159
 10
258.6986843463
 20
5.8884499987
 10
259.7060402634
 20
5.3257549838
 10
260.710227557
 20
4.8401471096
 10
261.7070343166
 20
4.4336631843
 10
262.6922795882
 20
4.1080081427
 10
263.6618309107
 20
3.8645478953
 10
264.6116216489
 20
3.7043035989
 10
265.5376680505
 20
3.6279473738
 10
266.4360859549
 20
3.6357994846
 10
267.3031070853
 20
3.7278269968
 10
268.1350948537
 20
3.9036439149
 10
268.9285596144
 20
4.1625128018
 10
269.6801733002
 20
4.5033478714
 10
269.9496954379
 20
4.6514958474
  0
ARC
  5
11B
330
1F
100
AcDbEntity
  8
0
  6
Continuous
 62
     1
370
    25
100
AcDbCircle
 10
256.3299008584
 20
33.3276377087
 30
0.0
 40
12.95161082266777
100
AcDbArc
 50
143.2126923203
 51
182.843824558
  0
LWPOLYLINE
  5
11C
330
1F
100
AcDbEntity
  8
0
  6
Continuous
 62
     1
370
    25
100
AcDbPolyline
 90
       38
 70
   128
 43
0.0
 10
222.1810367573
 20
-4.0572859841
 10
223.220620782
 20
-3.4948141937
 10
224.3210931647
 20
-2.9723688982
 10
225.4778381419
 20
-2.4921414148
 10
226.686003923
 20
-2.0561459845
 10
227.940523041
 20
-1.6662113235
 10
229.2361336066
 20
-1.3239729533
 10
230.5674013789
 20
-1.0308663407
 10
231.9287425582
 20
-0.7881208766
 10
233.3144472066
 20
-0.5967547198
 10
234.718703197
 20
-0.4575705266
 10
236.135620592
 20
-0.3711520837
 10
237.5592563475
 20
-0.3378618602
 10
238.9836392404
 20
-0.3578394869
 10
240.4027949139
 20
-0.4310011706
 10
241.8107709359
 20
-0.5570400457
 10
243.2016617657
 20
-0.7354274616
 10
244.5696335236
 20
-0.9654151993
 10
245.9089484609
 20
-1.2460386103
 10
247.2139890251
 20
-1.5761206625
 10
248.4792814226
 20
-1.9542768772
 10
249.6995185774
 20
-2.3789211357
 10
250.8695823909
 20
-2.8482723324
 10
251.9845652086
 20
-3.3603618452
 10
253.0397904053
 20
-3.9130417929
 10
254.0308319997
 20
-4.5039940436
 10
254.953533219
 20
-5.1307399383
 10
255.8040239335
 20
-5.7906506868
 10
256.5787368898
 20
-6.4809583941
 10
257.2744226723
 20
-7.1987676698
 10
257.8881633332
 20
-7.9410677723
 10
258.4173846308
 20
-8.7047452371
 10
258.8598668271
 20
-9.4865969355
 10
259.213753998
 20
-10.2833435096
 10
259.4775618177
 20
-11.0916431276
 10
259.6501837846
 20
-11.9081054999
 10
259.7308958621
 20
-12.7293060995
 10
259.7373859434
 20
-13.0377752141
  0
ARC
  5
11D
330
1F
100
AcDbEntity
  8
0
  6
Continuous
 62
     1
370
    25
100
AcDbCircle
 10
228.0889212836
 20
-15.5771701283
 30
0.0
 40
12.94646014452666
100
AcDbArc
 50
117.1506726168
 51
156.8099116781
  0
ENDSEC
  0
SECTION
  2
OBJECTS
  0
DICTIONARY
  5
C
330
0
100
AcDbDictionary
281
     1
  3
ACAD_GROUP
350
D
  3
ACAD_LAYOUT
350
1A
  3
ACAD_MLINESTYLE
350
17
  3
ACAD_PLOTSETTINGS
350
19
  3
ACAD_PLOTSTYLENAME
350
E
  3
ACAD_SCALELIST
350
47
  3
DWGPROPS
350
11E
  0
DICTIONARY
  5
D
102
{ACAD_REACTORS
330
C
102
}
330
C
100
AcDbDictionary
281
     1
  0
DICTIONARY
  5
1A
102
{ACAD_REACTORS
330
C
102
}
330
C
100
AcDbDictionary
281
     1
  3
Layout1
350
1E
  3
Layout2
350
26
  3
Model
350
22
  0
DICTIONARY
  5
17
102
{ACAD_REACTORS
330
C
102
}
330
C
100
AcDbDictionary
281
     1
  3
Standard
350
18
  0
DICTIONARY
  5
19
102
{ACAD_REACTORS
330
C
102
}
330
C
100
AcDbDictionary
281
     1
  0
ACDBDICTIONARYWDFLT
  5
E
102
{ACAD_REACTORS
330
C
102
}
330
C
100
AcDbDictionary
281
     1
  3
Normal
350
F
100
AcDbDictionaryWithDefault
340
F
  0
DICTIONARY
  5
47
102
{ACAD_REACTORS
330
C
102
}
330
C
100
AcDbDictionary
281
     1
  3
A0
350
48
  3
A1
350
49
  3
A2
350
4A
  3
A3
350
4B
  3
A4
350
4C
  3
A5
350
4D
  3
A6
350
4E
  3
A7
350
4F
  3
A8
350
50
  3
A9
350
51
  3
B0
350
52
  3
B1
350
53
  3
B2
350
54
  3
B3
350
55
  3
B4
350
56
  3
B5
350
57
  3
B6
350
58
  3
B7
350
59
  3
B8
350
5A
  3
B9
350
5B
  3
C0
350
5C
  3
C1
350
5D
  3
C2
350
5E
  3
C3
350
5F
  3
C4
350
60
  3
C5
350
61
  3
C6
350
62
  3
C7
350
63
  3
C8
350
64
  3
C9
350
65
  3
D0
350
66
  3
D1
350
67
  3
D2
350
68
  0
XRECORD
  5
11E
102
{ACAD_REACTORS
330
C
102
}
330
C
100
AcDbXrecord
280
     1
  1
DWGPROPS COOKIE
  2

  3

  4

  6

  7

  8
b.kav
  9

300
=
301
=
302
=
303
=
304
=
305
=
306
=
307
=
308
=
309
=
 40
0.0
 41
2459741.479526065
 42
2459741.47952625
  1

 90
        0
  0
LAYOUT
  5
1E
102
{ACAD_REACTORS
330
1A
102
}
330
1A
100
AcDbPlotSettings
  1

  2
none_device
  4

  6

 40
0.0
 41
0.0
 42
0.0
 43
0.0
 44
0.0
 45
0.0
 46
0.0
 47
0.0
 48
0.0
 49
0.0
140
0.0
141
0.0
142
1.0
143
1.0
 70
   688
 72
     1
 73
     0
 74
     5
  7

 75
    16
147
1.0
148
0.0
149
0.0
100
AcDbLayout
  1
Layout1
 70
     1
 71
     1
 10
0.0
 20
0.0
 11
420.0
 21
297.0
 12
0.0
 22
0.0
 32
0.0
 14
1.0000000000E+20
 24
1.0000000000E+20
 34
1.0000000000E+20
 15
-1.0000000000E+20
 25
-1.0000000000E+20
 35
-1.0000000000E+20
146
0.0
 13
0.0
 23
0.0
 33
0.0
 16
1.0
 26
0.0
 36
0.0
 17
0.0
 27
1.0
 37
0.0
 76
     0
330
1B
  0
LAYOUT
  5
26
102
{ACAD_REACTORS
330
1A
102
}
330
1A
100
AcDbPlotSettings
  1

  2
none_device
  4

  6

 40
0.0
 41
0.0
 42
0.0
 43
0.0
 44
0.0
 45
0.0
 46
0.0
 47
0.0
 48
0.0
 49
0.0
140
0.0
141
0.0
142
1.0
143
1.0
 70
   688
 72
     1
 73
     0
 74
     5
  7

 75
    16
147
1.0
148
0.0
149
0.0
100
AcDbLayout
  1
Layout2
 70
     1
 71
     2
 10
0.0
 20
0.0
 11
0.0
 21
0.0
 12
0.0
 22
0.0
 32
0.0
 14
0.0
 24
0.0
 34
0.0
 15
0.0
 25
0.0
 35
0.0
146
0.0
 13
0.0
 23
0.0
 33
0.0
 16
1.0
 26
0.0
 36
0.0
 17
0.0
 27
1.0
 37
0.0
 76
     0
330
23
  0
LAYOUT
  5
22
102
{ACAD_REACTORS
330
1A
102
}
330
1A
100
AcDbPlotSettings
  1

  2
none_device
  4
Letter_(8.50_x_11.00_Inches)
  6

 40
6.35
 41
6.35
 42
6.35000508
 43
6.35000508
 44
215.9
 45
279.4
 46
0.0
 47
0.0
 48
0.0
 49
0.0
140
0.0
141
0.0
142
1.0
143
1.0
 70
  1712
 72
     1
 73
     0
 74
     0
  7

 75
     0
147
1.0
148
0.0
149
0.0
100
AcDbLayout
  1
Model
 70
     1
 71
     0
 10
0.0
 20
0.0
 11
279.4
 21
215.9
 12
0.0
 22
0.0
 32
0.0
 14
0.0
 24
0.0
 34
0.0
 15
279.4
 25
215.9
 35
0.0
146
0.0
 13
0.0
 23
0.0
 33
0.0
 16
1.0
 26
0.0
 36
0.0
 17
0.0
 27
1.0
 37
0.0
 76
     0
330
1F
331
29
  0
MLINESTYLE
  5
18
102
{ACAD_REACTORS
330
17
102
}
330
17
100
AcDbMlineStyle
  2
Standard
 70
     0
  3

 62
   256
 51
90.0
 52
90.0
 71
     2
 49
0.5
 62
   256
  6
BYLAYER
 49
-0.5
 62
   256
  6
BYLAYER
  0
ACDBPLACEHOLDER
  5
F
102
{ACAD_REACTORS
330
E
102
}
330
E
  0
SCALE
  5
48
102
{ACAD_REACTORS
330
47
102
}
330
47
100
AcDbScale
 70
     0
300
1:1
140
1.0
141
1.0
290
     1
  0
SCALE
  5
49
102
{ACAD_REACTORS
330
47
102
}
330
47
100
AcDbScale
 70
     0
300
1:2
140
1.0
141
2.0
290
     0
  0
SCALE
  5
4A
102
{ACAD_REACTORS
330
47
102
}
330
47
100
AcDbScale
 70
     0
300
1:4
140
1.0
141
4.0
290
     0
  0
SCALE
  5
4B
102
{ACAD_REACTORS
330
47
102
}
330
47
100
AcDbScale
 70
     0
300
1:5
140
1.0
141
5.0
290
     0
  0
SCALE
  5
4C
102
{ACAD_REACTORS
330
47
102
}
330
47
100
AcDbScale
 70
     0
300
1:8
140
1.0
141
8.0
290
     0
  0
SCALE
  5
4D
102
{ACAD_REACTORS
330
47
102
}
330
47
100
AcDbScale
 70
     0
300
1:10
140
1.0
141
10.0
290
     0
  0
SCALE
  5
4E
102
{ACAD_REACTORS
330
47
102
}
330
47
100
AcDbScale
 70
     0
300
1:16
140
1.0
141
16.0
290
     0
  0
SCALE
  5
4F
102
{ACAD_REACTORS
330
47
102
}
330
47
100
AcDbScale
 70
     0
300
1:20
140
1.0
141
20.0
290
     0
  0
SCALE
  5
50
102
{ACAD_REACTORS
330
47
102
}
330
47
100
AcDbScale
 70
     0
300
1:30
140
1.0
141
30.0
290
     0
  0
SCALE
  5
51
102
{ACAD_REACTORS
330
47
102
}
330
47
100
AcDbScale
 70
     0
300
1:40
140
1.0
141
40.0
290
     0
  0
SCALE
  5
52
102
{ACAD_REACTORS
330
47
102
}
330
47
100
AcDbScale
 70
     0
300
1:50
140
1.0
141
50.0
290
     0
  0
SCALE
  5
53
102
{ACAD_REACTORS
330
47
102
}
330
47
100
AcDbScale
 70
     0
300
1:100
140
1.0
141
100.0
290
     0
  0
SCALE
  5
54
102
{ACAD_REACTORS
330
47
102
}
330
47
100
AcDbScale
 70
     0
300
2:1
140
2.0
141
1.0
290
     0
  0
SCALE
  5
55
102
{ACAD_REACTORS
330
47
102
}
330
47
100
AcDbScale
 70
     0
300
4:1
140
4.0
141
1.0
290
     0
  0
SCALE
  5
56
102
{ACAD_REACTORS
330
47
102
}
330
47
100
AcDbScale
 70
     0
300
8:1
140
8.0
141
1.0
290
     0
  0
SCALE
  5
57
102
{ACAD_REACTORS
330
47
102
}
330
47
100
AcDbScale
 70
     0
300
10:1
140
10.0
141
1.0
290
     0
  0
SCALE
  5
58
102
{ACAD_REACTORS
330
47
102
}
330
47
100
AcDbScale
 70
     0
300
100:1
140
100.0
141
1.0
290
     0
  0
SCALE
  5
59
102
{ACAD_REACTORS
330
47
102
}
330
47
100
AcDbScale
 70
     0
300
1/128" = 1'-0"
140
0.0078125
141
12.0
290
     0
  0
SCALE
  5
5A
102
{ACAD_REACTORS
330
47
102
}
330
47
100
AcDbScale
 70
     0
300
1/64" = 1'-0"
140
0.015625
141
12.0
290
     0
  0
SCALE
  5
5B
102
{ACAD_REACTORS
330
47
102
}
330
47
100
AcDbScale
 70
     0
300
1/32" = 1'-0"
140
0.03125
141
12.0
290
     0
  0
SCALE
  5
5C
102
{ACAD_REACTORS
330
47
102
}
330
47
100
AcDbScale
 70
     0
300
1/16" = 1'-0"
140
0.0625
141
12.0
290
     0
  0
SCALE
  5
5D
102
{ACAD_REACTORS
330
47
102
}
330
47
100
AcDbScale
 70
     0
300
3/32" = 1'-0"
140
0.09375
141
12.0
290
     0
  0
SCALE
  5
5E
102
{ACAD_REACTORS
330
47
102
}
330
47
100
AcDbScale
 70
     0
300
1/8" = 1'-0"
140
0.125
141
12.0
290
     0
  0
SCALE
  5
5F
102
{ACAD_REACTORS
330
47
102
}
330
47
100
AcDbScale
 70
     0
300
3/16" = 1'-0"
140
0.1875
141
12.0
290
     0
  0
SCALE
  5
60
102
{ACAD_REACTORS
330
47
102
}
330
47
100
AcDbScale
 70
     0
300
1/4" = 1'-0"
140
0.25
141
12.0
290
     0
  0
SCALE
  5
61
102
{ACAD_REACTORS
330
47
102
}
330
47
100
AcDbScale
 70
     0
300
3/8" = 1'-0"
140
0.375
141
12.0
290
     0
  0
SCALE
  5
62
102
{ACAD_REACTORS
330
47
102
}
330
47
100
AcDbScale
 70
     0
300
1/2" = 1'-0"
140
0.5
141
12.0
290
     0
  0
SCALE
  5
63
102
{ACAD_REACTORS
330
47
102
}
330
47
100
AcDbScale
 70
     0
300
3/4" = 1'-0"
140
0.75
141
12.0
290
     0
  0
SCALE
  5
64
102
{ACAD_REACTORS
330
47
102
}
330
47
100
AcDbScale
 70
     0
300
1" = 1'-0"
140
1.0
141
12.0
290
     0
  0
SCALE
  5
65
102
{ACAD_REACTORS
330
47
102
}
330
47
100
AcDbScale
 70
     0
300
1-1/2" = 1'-0"
140
1.5
141
12.0
290
     0
  0
SCALE
  5
66
102
{ACAD_REACTORS
330
47
102
}
330
47
100
AcDbScale
 70
     0
300
3" = 1'-0"
140
3.0
141
12.0
290
     0
  0
SCALE
  5
67
102
{ACAD_REACTORS
330
47
102
}
330
47
100
AcDbScale
 70
     0
300
6" = 1'-0"
140
6.0
141
12.0
290
     0
  0
SCALE
  5
68
102
{ACAD_REACTORS
330
47
102
}
330
47
100
AcDbScale
 70
     0
300
1'-0" = 1'-0"
140
12.0
141
12.0
290
     0
  0
ENDSEC
  0
EOF
